Song name
# A B C D E F G H I J K L M N O P Q R S T U V W X Y Z

Kings Of Leon - Mollys Chambers tab

ADD 10 TO THE FRET NUMBER (IN OTHER WORDS READ TAB LIKE THERE IS A CAPO ON 10 FRET)

                          tripplets
 B       D       F#                              B       D       F#
|1   2   3   4  |1       2       3      4       |1   2   3   4  |1     2    3    4
-4---4---4---4--|4------------------------------|---------------|--------------------|
-7B9-7B9-7B9-7B9|7B9R7-4----------------4-------|------4-4-----4|4-------4-----------|
----------------|--------6B8R6-4---4-6--6B8-----|----6---6B8-6--|6B8R6-4-6B8---------|
----------------|----------------6--------------|---------------|--------------------|
----------------|-------------------------------|---------------|--------------------|
----------------|-------------------------------|---------------|--------------------|


FROM NOW ON FRET NUMBERS ON TAB ARE EQUAL TO THE FRETBOARD (NO CAPO!)

 B         D         F#                 A                 B               
|1   2     3   4    |1     2   3    4  |1     2   3   4  |1   2   3   4   |
--------------------|------------------|-----------------|----------------|
-----2--------------|2--------------2--|2-------------2--|2---------------|
-----4B6R4-2---2-4--|4B6R4-2---2--4-4B6|4B6R4-2---2-4-4B6|4B6-6-6-6-6-6R4-|
-------------4------|--------4---------|--------4--------|---(HOLD BENT)--|
--------------------|------------------|-----------------|----------------|
--------------------|------------------|-----------------|----------------|








(alternative version of the second part)
 B         D         F#                 A                 B               
|1   2     3   4    |1     2   3    4  |1     2   3   4  |1   2   3   4   |
--------------------|------------------|-----------------|----------------|
--------------------|------------------|-----------------|---(HOLD BENT)--|
-----4B6R4-2---2-4--|4B6R4-2---2--4-4B6|4B6R4-2---2-4-4B6|4B6-6-6-6-6-6R4-|
-----4B6R4---4------|4B6R4---4------4B6|4B6R4---4-----4B6|4B6-------------|
--------------------|------------------|-----------------|----------------|
--------------------|------------------|-----------------|----------------|

B - bend
R - release

Peace,
Merefnebef
Tap to rate this tab
 
# A B C D E F G H I J K L M N O P Q R S T U V W X Y Z