Song name
# A B C D E F G H I J K L M N O P Q R S T U V W X Y Z

Kings Of Leon - Dancing On My Own tab

Kings of Leon cover the song Dancing on my Own by Robyn

http://www.youtube.com/watch?v=aQ-vU28uPb0

Tuning:Standard

Caleb

e|-8------3-----1---------------------------------------------------------------|
B|-8------3-----1---------------------------------------------------------------|
G|-9------4-----2---------------------------------------------------------------|
D|-10-----5-----3---------------------------------------------------------------|
A|-10-----5-----3---------------------------------------------------------------|
E|-8------3-----1---------------------------------------------------------------|


Pre Chorus 

Caleb

e|-5------3-----1---------------------------------------------------------------|
B|-5------3-----1---------------------------------------------------------------|
G|-6------4-----2---------------------------------------------------------------|
D|-7------5-----3---------------------------------------------------------------|
A|-7------5-----3---------------------------------------------------------------|
E|-5------3-----1---------------------------------------------------------------|

Matthew plays something like this after the Chorus

e|---------------------------------------------------------------------------|
B|-13--13---20---17--20---17---13--------------------------------------------|
G|---------------------------------------------------------------------------|
D|---------------------------------------------------------------------------|
A|---------------------------------------------------------------------------|
E|---------------------------------------------------------------------------|
Tap to rate this tab
# A B C D E F G H I J K L M N O P Q R S T U V W X Y Z