Song name
# A B C D E F G H I J K L M N O P Q R S T U V W X Y Z

Kings Of Leon - Dancing On My Own tab

Hi this is my first tab so sorry if its not 100%.
I first heard on Radio 1 and thought that's pretty cool
so i thought i would try and learn it. 
Not figured the solo out yet but when i do, ill update.
You should be able to find the rhythm pretty easy.

Hope You Enjoy :)
 

Guitar 1 (intro)

e|----8--------3--------1----------0------0--------------------------|
B|-------------------------------------------------------------------|
G|-------------------------------------------------------------------|
D|-------------------------------------------------------------------| 
A|-------------------------------------------------------------------|
E|--8--------3--------1---------1-----1------------------------------|
       (x4)     (x4)     (x8)

(verse)
Guitar 2 (Somebody Said Youve Got a New Friend)
e|---------------------------1--0------------------------------------|
B|-------------------------------------------------------------------|
G|-------------------------------------------------------------------|
D|-------------------------------------------------------------------| 
A|----10------5-------3----------------------------------------------|
E|----8-------3-------1----------------------------------------------|


Guitar 1
e|-----8-----3-----1-----1-0------------------------------------------|
B|-----x-----x-----x--------------------------------------------------|
G|-----x-----x-----x--------------------------------------------------|
D|-----x-----x-----x--------------------------------------------------| 
A|-----x-----x-----x--------------------------------------------------|
E|-----8-----3-----1--------------------------------------------------|

Or

e|-----8-----3------1-----1-0----------------------------------------|
B|-------------------------------------------------------------------|
G|-------------------------------------------------------------------|
D|-------------------------------------------------------------------| 
A|-------------------------------------------------------------------|
E|-------------------------------------------------------------------|

(Pre Chorus)
Guitar 1
e|--8---3---1----1-0-----5-----3-----1-------1--0--------------------|
B|-------------------------------------------------------------------|
G|-------------------------------------------------------------------|
D|-------------------------------------------------------------------| 
A|-------------------------------------------------------------------|
E|-------------------------------------------------------------------|

Guitar 2
e|-------------------------------------------1--0--------------------|
B|-------------------------------------------------------------------|
G|-------------------------------------------------------------------|
D|-------------------------------------------------------------------| 
A|---10------5----3----------7----5---3------------------------------|
E|----8------3----1----------5----3---1------------------------------|

Chorus
Both Guitars
e|-------------------------------------------------------------------|
B|-------------------------------------------------------------------|
G|-------------------------------------------------------------------|
D|---10-----5----3---------------3-----5----3------------------------| 
A|---10-----5----3---------------3-----5----3------------------------|
E|----8-----3----1---------------5-----3----1------------------------|
       (x4)  (x4)  (x8)   Then    (x4)  (x4)  (x8)
Tap to rate this tab
 
# A B C D E F G H I J K L M N O P Q R S T U V W X Y Z