Song name
# A B C D E F G H I J K L M N O P Q R S T U V W X Y Z

Kings Of Leon - Wait For Me tab

Tabbed By: yulizavala22
Kings Of Leon
Mechanical Bull
Wait For Me

This is my favorite song on this new album
and I just wanted to tab it out because
it is such a good song.

Caleb plays this throughout the song,
this is the verse and intro
e|-------------------  ------------------------------------|
B|-------------------  ------------------------------------|
G|------------------ x2 -----------------------------------|
D|-----0--------0----  -----0--------0--------0--------0---|
A|---4---4----4----4-  ---4----4---4----4---4----4---4---4-|
E|-5--------5--------  -2--------2--------0--------0-------|

Matthew plays this song with effect but if you learn to play it you could still make it out

1st part of the verse:
e|---------------------------------|
B|---------------------------------|
G|-6--(6--6--6) x2 -2--(2--2--2)---|
D|-7--(7--7--7)-----4--(4--4--4)---|
A|---------------------------------|
E|---------------------------------|

e|-------------------------------------|
B|-------------------------------------|
G|-1--(1--1)--6--(6--6)--6--(6--6--6)--|
D|-2--(2--2)--7--(7--7)--7--(7--7--7)--|
A|-------------------------------------|
E|-------------------------------------|
    everything in the parenthesis is special effects but
    if you the first one with emphasis and the rest lightly
    it will sound like the song


2nd part of the verse: This part of the song can barely be heard but around (0:32) it
starts but you actually hear it at (0:38)

NOTE: MATTHEW ONLY PALM MUTES THIS PART OF THE VERSE
e|-----------------------------------------|
B|------5--------5-------5------7--5h7-----|
G|----6--------6-------6-------------------|
D|--7-----7--7-----7-7-----7--7--------7---|
A|---------------------------------------\-|
E|-----------------------------------------| \
                                                                   x2
e|----------------------------------------| /
B|------2------3--2-------0--------0------|
G|----2-------------2---1--------1---1----|
D|--4-----4--4--------2-----2--2----------|
A|----------------------------------------|
E|----------------------------------------|

Jaredís Bass part is this for the intro and verse

NOTE: EVRYTHING BUT THE CHORUS AND THE FIRST PART OF THE BRIDGE ARE PALM MUTED FOR THE BASS

G|------------------------------------|
D|------------------------------------|
A|------------------------------------|
E|-5-5-5--5-5-5--2-2-2--0-0-0-9-9-9---|


Chorus:
Calebís chorus
e|---------------------------------------------------|
B|-----5-------5--------5-------5--------5-----------|
G|---6---6---6---6----6---6---6---6----6---6---------|
D|-7-------7-----------------------------------------| x2
A|------------------4-------4------------------------|
E|-----------------------------------0---------------|

Matthewís chorus
e|------0-------0----|
B|----2---2---2---2--|
G|--2-------2--------| x16
D|-------------------|
A|-------------------|
E|-------------------|

Jaredís chorus
G|--------------|
D|--------------|
A|-5--4--7--7---| x2
E|--------------|

There is a guitar part in this song, it sound like a keyboard but it isnít. It is using
an effect on the sound. These parts are played throughout the whole song

This part is played at(0:17)and(3:14)
e|--------------------------------|
B|--------------------------------|
G|--7-9-7-6~--6-7-9-------6-------|
D|------------------7---7---7-6~--|
A|--------------------------------|
E|--------------------------------|

This at(1:18)and(2:35)
e|------------------------------------ -(0)-| this right
B|------------------------------------ -(x)-| here is
G|--7-9-7-6~--6-7-9-6~---------6------ -(9)-| played the
D|-------------------------7-7---7-6~- -----| second time
A|------------------------------------------|
E|------------------------------------------|

e|-14/-- let it ring and slide down
B|------|
G|------|
D|------|
A|------|
E|------|
This is played at(0:55),(1:03),(1:44),
(1:52),(2:00),(2:08),(2:48),
(2:56),(3:04)and(3:12)

Bridge:
Calebís Bridge part:
e|-----------------0~-----------------------0~---------|
B|--7~-------------0~-------------7~---9~---0~---------|
G|--7~--------2~---6~--------2~---7~---9~---2~---------|
D|--7~---9~---4~---7~---9~---4~---7~---9~---4~---9~~~~-|
A|--5~---7~---4~---7~---7~---4~---5~---7~---4~---7~~~~-|
E|-------7~--------5~---7~-----------------------7~~~~-|

Matthewís part for the bridge
e|--------------------------------------------------------|
B|-15 -------14  ------15 -------14~~--15 -------14 ------|
G|-14 (x12)--14 (x12)--14 (x12)--15~~--14 (x12)--14 (x12)-|
D|--------------------------------------------------------|
A|--------------------------------------------------------|
E|--------------------------------------------------------|

e|-0--0--0--0--0--0--0--0-----0--0--0--0--0--0--0--0--|
B|-10-10-10-10-10-10-10-10----9--9--9--9--9--9--9--9--|
G|----------------------------------------------------|
D|----------------------------------------------------|
A|----------------------------------------------------|
E|----------------------------------------------------|

Jaredís Bridge Part
G|--------------------------------------|
D|--------------------------------------|
A|-5~~--7--------------------5~~--7-----|
E|---------2----5~~--7--2------------2--|

G|----
D|----
A|---- x16 Palm Mute
E|-0--

Outro:
Calebís outro
e|-------------------  -----------------------|
B|-------------------  -----------------------|
G|------------------ x2 ----------------------|
D|-----0--------0----  -----0--------0--------|
A|---4---4----4----4-  ---4----4---4----4-----|
E|-5--------5--------  -2--------2--------0~--|

Matthewís outro
e|-----------------------------------|
B|-----------------------------------|
G|-6--(6--6--6) x2 -2--(2--2--2)--1~-|
D|-7--(7--7--7)-----4--(4--4--4)--2~-|
A|-----------------------------------|
E|-----------------------------------|

Jaredís outro
G|---------------------------|
D|---------------------------|
A|---------------------------|
E|-5-5-5--5-5-5--2-2-2---0~--|

Order of the song:
Intro
Verse 1
Chorus
Verse 2
Chorus 2
Bridge
Pre Chorus
Chorus 3
Outro
Tap to rate this tab
# A B C D E F G H I J K L M N O P Q R S T U V W X Y Z