Song name
# A B C D E F G H I J K L M N O P Q R S T U V W X Y Z

Kings Of Leon - Coming Back Again tab

--------- Coming Back again - Kings Of Leon-----------------------------
Tuning: Standard
By:Ricardo
This the intro part that Matt plays. Im also including parts of the song
Feel free to use it for comparison or to complete the full version thanks :)
e|---------------------------------------------------------------|
B|-----4----4----------------------------------------------------|
G|----6----6---6--3~--6--3-6--3\4/3~-----------------------------|
D|---6----6------------------------------------------------------|
A|---------------------------------------------------------------|
E|---------------------------------------------------------------|

e|---------------------------------------------------------------|
B|-----4----4----------------------------------------------------|
G|----6----6---6--3~--6--3-6--3\4/3------------------------------|
D|---6----6------------------------4-6~--------------------------|
A|---------------------------------------------------------------|
E|---------------------------------------------------------------|

I got a feeling coming back again...
e|-----------------------------16--16--16\-----------------------|
B|--12(x8)--14(x8)--16(x8)---19--19--19--------------------------|
G|---------------------------------------------------------------|
D|---------------------------------------------------------------|
A|---------------------------------------------------------------|
E|---------------------------------------------------------------|

And I can feel it coming back again 
Ohhh ohhh ohhh ohhh ohh~
e|---------------------------------------------------------------|
B|-12~---11-12-14-11-12~-----------------------------------------|
G|---------------------------------------------------------------|
D|---------------------------------------------------------------|
A|---------------------------------------------------------------|
E|---------------------------------------------------------------|

Careless hands and grimace hides a smile...
e|---------------------------------------------------------------|
B|-----4----4----2-----------------------------------------------|
G|----6----6----4------6--3~--6--3-6--3\4/3----------------------|
D|---6----6----4----------------------------4-6~-----------------|
A|---------------------------------------------------------------|
E|---------------------------------------------------------------|

I can Feel it coming baaaack!
ohhh ohhh ohhh ohhh ohhhh
e|---------------------------------------------------------------|
B|-12~---11-12-14-11-12~-----------------------------------------|
G|---------------------------------------------------------------|
D|---------------------------------------------------------------|
A|---------------------------------------------------------------|
E|---------------------------------------------------------------|

(x3)
e|---11--11--11--11--14-11---------------------------------------|
B|-14--14--14--14--14--------------------------------------------|
G|---------------------------------------------------------------|
D|---------------------------------------------------------------|
A|---------------------------------------------------------------|
E|---------------------------------------------------------------|

e|---11--11------------------------------------------------------|
B|-14--14---14-14(b)---------------------------------------------|
G|---------------------------------------------------------------|
D|---------------------------------------------------------------|
A|---------------------------------------------------------------|
E|---------------------------------------------------------------|
Tap to rate this tab
 
# A B C D E F G H I J K L M N O P Q R S T U V W X Y Z