Song name
# A B C D E F G H I J K L M N O P Q R S T U V W X Y Z

Kings Of Leon - Tonight tab

-----------------------------------------------------------------------------
                           Tonight - Kings of Leon
-----------------------------------------------------------------------------
Tabbed by: cdberger
E-mail: cdberger98@gmail.com

Tuning: Standard

This is an amazing song from their new album "Mechanical Bull". Enjoy!

I'm assuming you already know how to read tabs, so I will not repeat each
section as necessary, but all of the parts are there.

I also tabbed Work on Me, to see that, use this link:

http://tabs.ultimate-guitar.com/k/kings_of_leon/work_on_me_tab.htm

Intro
There's an echo here, so if you can, use an echo effect

e|-------------------------------------------------------------------------|
B|-------------------------------------------------------------------------|
G|-------------------------------------------------------------------------|
D|-------2-2-2-------2-2-2-------2-2-2-------2-2-2-------1-1-1-------1-1-1-|
A|-------------------------4-4-4-------4-4-4-------2-2-2-------2-2-2-------|
E|-0-0-0-------0-0-0-------------------------------------------------------|

--------------------------|
--------------------------|
--------------------------|
--------------------1-1-1-|
--0-0-0-4-4-4-2-2-2-------|
--------------------------|

e|------------------------------------------------------------------------|
B|----10----10---9---9---7---7---9---9----12----12----10----10--5----5--7-|
G|-11----11----9---9---8---8---9---9---13----13----11----11-----4--6------|
D|------------------------------------------------------------------------|
A|------------------------------------------------------------------------|
E|------------------------------------------------------------------------|

Verse 1

(Same riff as intro)

e|------------------------------------------------------------------------|
B|----10----10---9---9---7---7---9---9----12----12----10----10--5----5--7-|
G|-11----11----9---9---8---8---9---9---13----13----11----11-----4--6------|
D|------------------------------------------------------------------------|
A|------------------------------------------------------------------------|
E|------------------------------------------------------------------------|

Chorus

e|-12----12----11----11-----9----9----11----11----|
B|----12----12----12----12----12---12----12----12-|  [3x]
G|------------------------------------------------|
D|------------------------------------------------|
A|------------------------------------------------|
E|------------------------------------------------|

e|-9----9----11----11----12----12----14-|
B|---12---12----12----12----12----12----|
G|--------------------------------------|
D|--------------------------------------|
A|--------------------------------------|
E|--------------------------------------|

Verse 2

(Same as verse 1)

e|--------------------------------------------------------------------------|
B|--------------------------------------------------------------------------|
G|-9-9-9-8-8-8-8-9-9-9-8-8-8-8-11-11-11-8-8-8-8-9-9-9---------9-9-9-8-8-8-8-|
D|----------------------------------------------------9-9-9-9---------------|
A|--------------------------------------------------------------------------|
E|--------------------------------------------------------------------------|

-----------------------------|
-------------------5----5--7-|
-------------------4--6------|
-----------------------------|
--11-11-11-8-8-8-8-----------|
-----------------------------|

Chorus

Interlude

e|-12-|
B|----| [Play this note alot]
G|----|
D|----|
A|----|
E|----|

e|------------------------------------------------------------|
B|------------------------------------------------------------|
G|------------------------------------------------------------|
D|------------------------------------------------------------|
A|------------------------------------------------------------|
E|-2-2-2-2-2-2-2-2--5-5-5-5-5-5-5-5--12-12-12-12-12-12-12-12--|

--------------------------|
--------------------------|
--------------------------|
--------------------------|
--------------------------|
--14-14-14-12-12-12-12-12-|

e|-14--16---------|
B|--------16b--14-|
G|----------------|
D|----------------|
A|----------------|
E|----------------|

e|----------|
B|-16b--14b-| [Listen to song, these are played rapidly]
G|----------|
D|----------|
A|----------|
E|----------|

Chorus

Outro
Tap to rate this tab
# A B C D E F G H I J K L M N O P Q R S T U V W X Y Z