Song name
# A B C D E F G H I J K L M N O P Q R S T U V W X Y Z

Kings Of Leon - Last Mile Home tab

Listen to the track for timing, I've spaced the notes as accurately as I can. This 
is my first tab so be gentle with me please.

This tab is incomplete, and is only for the higher, less distorted guitar part.

Intro:

e|9--~ ~---12--~ ~----------~ ~-----------------------| ALT: e|9---7---5---2---0-|
B|10-~ ~-----9-~ ~--12-14-7-~ ~--14-9-12-7-10-5-7-2-5-|      B|--9---7---5---2---|
G|9--~ ~-------~ ~----------~ ~-----------------------|
D|11-~ ~-------~ ~----------~ ~-----------------------|
A|12-~ ~-------~ ~----------~ ~-----------------------|
E|9--~ ~-------~ ~----------~ ~-----------------------|

Verse 1:

e|---------------------~ ~---12--~ ~----------~ ~------~ ~---------------|
B|14-9-12-7-10-5-7-2-5-~ ~-----9-~ ~--12-14-7-~ ~--10--~ ~--12s14--12-10-|
G|---------------------~ ~-------~ ~----------~ ~----7-~ ~---------------|
D|---------------------~ ~-------~ ~----------~ ~------~ ~---------------|
A|---------------------~ ~-------~ ~----------~ ~------~ ~---------------|
E|---------------------~ ~-------~ ~----------~ ~------~ ~---------------|

Repeat as and where needed:

e|---------------------|
B|14-9-12-7-10-5-7-2-5-|
G|---------------------|
D|---------------------|
A|---------------------|
E|---------------------|

Please contact me if there's anything you'd like me to add, otherwise this tab is 
free to use and distribute however you want.
iwrite05@gmail.com
Tap to rate this tab
# A B C D E F G H I J K L M N O P Q R S T U V W X Y Z