Song name
# A B C D E F G H I J K L M N O P Q R S T U V W X Y Z

Kings Of Leon - Rock City tab

E|-----------------------------------------------------------------------------------------|
B|-------------7-----10---------------------------------------7--8--7--8--7----------------|
G|--9b11----9-----9------9b11----9b11--9b11--7--9--7-----7-------------------9-------------|
D|----------------------------------------------------9-------------------------9--9b11r9--|
A|-----------------------------------------------------------------------------------------|
E|-----------------------------------------------------------------------------------------|



E|---------------------------------------------------------------------------|
B|----------------3---------5-------7----9b10-----------------9b10--7--8--7\-|
G|---------------------------------------------11--7--9--7-------------------|
D|--4--2--4--2/4-------4/5-----5/7-------------------------------------------|
A|---------------------------------------------------------------------------|
E|---------------------------------------------------------------------------|



E|-------------------------------------------------------------------------|
B|--12-----14-----15---------8--------10---------12---------14----15-------|
G|--14b16--16b18--17b19----------------------------------------14----------|
D|------------------------8/9-----9/10------10/12------12/14---------------|
A|-------------------------------------------------------------------------|
E|-------------------------------------------------------------------------|
Tap to rate this tab
# A B C D E F G H I J K L M N O P Q R S T U V W X Y Z