Song name
# A B C D E F G H I J K L M N O P Q R S T U V W X Y Z

Kings Of Leon - Coming Back Again tab

Kings of Leon - Coming Back Again

Tuning: Standard

Any corrections/suggestions would be appreciated.


e|-----------------------------------------------------------------|
B|--------4~------------4~-------2----2-2--------------------------|
G|------6-------------6-----------3~---3-4-3-----------------------|
D|----6-------------6----------------------------------------------|
A|-----------------------------------------------------------------|
E|-----------------------------------------------------------------|
 |
 |
e|-----------------------------------------------------------------|
B|-----------------------------------------------------------------|
G|-----------------------------------------------------------------|
D|-----------------------------------------------------------------|
A|---6-4-6-4-6-----6-4-6-4-6-----6-4-6-4-6-----6-4-6-4-6-----------|
E|-----------------------------------------------------------------|
  PM - - - - -     - - - - -     - - - - -     - - - - -



e|-----------------------------------------------------------------|
B|--------4~------------4~-------2-------2-2-----------------------|
G|------6-------------6-----------3~------3-4-3-1------------------|
D|----6-------------6--------------------------4-------------------|
A|-----------------------------------------------------------------|
E|-----------------------------------------------------------------|
 |
 |
e|-----------------------------------------------------------------|
B|-----------------------------------------------------------------|
G|-----------------------------------------------------------------|
D|-----------------------------------------------------------------|
A|---6-4-6-4-6-----6-4-6-4-6-----6-4-6-4-6-----6-4-6-4-6-----------|
E|-----------------------------------------------------------------|
     - - - - -     - - - - -     - - - - -     - - - - -



e|-----------------------------------------------------------------|
B|-----------------------------------------------------------------|
G|-----------------------------------------------------------------|
D|-----------------------------------------------------------------|
A|---6-4-6-4-6-----6-4-6-4-6-----6-4-6-4-6-----6-4-6-4-6-----------|
E|-----------------------------------------------------------------|
x2   - - - - -     - - - - -     - - - - -     - - - - -



e|-------------------7--9--11--------14h16-14h16-14h16-14h16/0-----|
B|-----------------------------------------------------------------|
G|-----------------------------------------------------------------|
D|-----------------------------------------------------------------|
A|-----------------------------------------------------------------|
E|-----------------------------------------------------------------|
 |                  ^  x8  ^
 |
e------------------------------------------------------------------|
B|----4~------4~---------------------------------------------------|
G|----4~------4~----4-4-44-4-4-44-444-4-4-4------------------------|
D|-44-4~--444-4~----4-4-44-4-4-44-444-4-4-4------------------------|
A|-66-6~--666-6~---------------------------------------------------|
E|-66-----666------------------------------------------------------|
                    - - -- - - -- --- - - -



e|-------------------7--9----------19---21-------------------------|
B|---------------------------------16---19-------------------------|
G|-----------------------------------------------------------------|
D|-----------------------------------------------------------------|
A|-----------------------------------------------------------------|
E|-----------------------------------------------------------------|
 |                 ^  x8  ^
 |
e------------------------------------------------------------------|
B|-----4~----------------------------------------------------------|
G|-----4~---------4-4-44-4-4-44-444-4-4-4--------------------------|
D|--44-4~--444----4-4-44-4-4-44-444-4-4-4--------------------------|
A|--66-6~--666-----------------------------------------------------|
E|--66-----666-----------------------------------------------------|
                  - - -- - - -- --- - - -



e|-----------------------------------------------------------------|
B|-12-11-12-11-12-14-11--------------------------------------------|
G|-----------------------------------------------------------------|
D|-----------------------------------------------------------------|
A|-----------------------------------------------------------------|
E|-----------------------------------------------------------------|
 |x4
 |
e------------------------------------------------------------------|
B|-----------------------------------------------------------------|
G|--4-4-44-4-4-44-444-4-4-4----------------------------------------|
D|--4-4-44-4-4-44-444-4-4-4----------------------------------------|
A|-----------------------------------------------------------------|
E|-----------------------------------------------------------------|
x4  - - -- - - -- --- - - -



e|-----------------------------------------------------------------|
B|--------4~------------4~----------2~---2-2-----------------------|
G|------6-------------6-----------4-------3-4-3-1------------------|
D|----6-------------6-----------4--------------4-------------------|
A|-----------------------------------------------------------------|
E|-----------------------------------------------------------------|
 |
 |
e|-----------------------------------------------------------------|
B|-----------------------------------------------------------------|
G|-----------------------------------------------------------------|
D|-----------------------------------------------------------------|
A|---6-4-6-4-6-----6-4-6-4-6-----6-4-6-4-6-----6-4-6-4-6-----------|
E|-----------------------------------------------------------------|
     - - - - -     - - - - -     - - - - -     - - - - -



e|-----------------------------------------------------------------|
B|--------4~------------4~----------2~---2-2-----------------------|
G|------6-------------6-----------4-------3-4-3-1------------------|
D|----6-------------6-----------4--------------4-------------------|
A|-----------------------------------------------------------------|
E|-----------------------------------------------------------------|
 |
 |
e|-----------------------------------------------------------------|
B|-----------------------------------------------------------------|
G|-----------------------------------------------------------------|
D|-----------------------------------------------------------------|
A|---6-4-6-4-6-----6-4-6-4-6-----6-4-6-4-6-----6-4-6-4-6-----------|
E|-----------------------------------------------------------------|
     - - - - -     - - - - -     - - - - -     - - - - -



e|-----------------7--9--11--------14h16-14h16-14h16-14h16/0-------|
B|-----------------------------------------------------------------|
G|-----------------------------------------------------------------|
D|-----------------------------------------------------------------|
A|-----------------------------------------------------------------|
E|-----------------------------------------------------------------|
 |                ^  x8  ^
 |
e------------------------------------------------------------------|
B|-----4~----------------------------------------------------------|
G|-----4~---------4-4-44-4-4-44-444-4-4-4--------------------------|
D|--44-4~--444----4-4-44-4-4-44-444-4-4-4--------------------------|
A|--66-6~--666-----------------------------------------------------|
E|--66-----666-----------------------------------------------------|
                  - - -- - - -- --- - - -



e|----------------------7--9----------19---21----------------------|
B|------------------------------------16---19----------------------|
G|-----------------------------------------------------------------|
D|-----------------------------------------------------------------|
A|-----------------------------------------------------------------|
E|-----------------------------------------------------------------|
 |                    ^  x8  ^
 |
e------------------------------------------------------------------|
B|-----4~-------4~-------------------------------------------------|
G|-----4~-------4~---4-4-44-4-4-44-444-4-4-4-----------------------|
D|--44-4~--444--4~---4-4-44-4-4-44-444-4-4-4-----------------------|
A|--66-6~--666--6~-------------------------------------------------|
E|--66-----666-----------------------------------------------------|
                     - - -- - - -- --- - - -



e|-----------------------------------------------------------------|
B|-12-11-12-11-12-14-11--------------------------------------------|
G|-----------------------------------------------------------------|
D|-----------------------------------------------------------------|
A|-----------------------------------------------------------------|
E|-----------------------------------------------------------------|
 |x4
 |
e------------------------------------------------------------------|
B|-----------------------------------------------------------------|
G|--4-4-44-4-4-44-444-4-4-4----------------------------------------|
D|--4-4-44-4-4-44-444-4-4-4----------------------------------------|
A|-----------------------------------------------------------------|
E|-----------------------------------------------------------------|
x4  - - -- - - -- --- - - -



e|-----------------------------------------------------------------|
B|---16--16--16--16--19-16---------16--16--16^^^^------------------|
G|-18--18--18--18--18------------18--18--18------------------------|
D|-----------------------------------------------------------------|
A|-----------------------------------------------------------------|
E|-----------------------------------------------------------------|
 |[     x3               ]
 |
e------------------------------------------------------------------|
B|-----------------------------------------------------------------|
G|----------------------4-4-44-4-4-44-444-4-4-4--------------------|
D|----------------------4-4-44-4-4-44-444-4-4-4--------------------|
A|-----------------------------------------------------------------|
E|-----------------------------------------------------------------|
 |                   x2 - - -- - - -- --- - - -
 |
e|-----------------------------------------------------------------|
B|-----------------------------------------------------------------|
G|-----------------------------------------------------------------|
D|-----------------------------------------------------------------|
A|---6-4-6-4-6-----6-4-6-4-6-----6-4-6-4-6-----6-4-6-4-6-----------|
E|-----------------------------------------------------------------|
x4   - - - - -     - - - - -     - - - - -     - - - - -



e|-----------------------------------------------------------------|
B|-12-11-12-11-12-14-11--------------------------------------------|
G|-----------------------------------------------------------------|
D|-----------------------------------------------------------------|
A|-----------------------------------------------------------------|
E|-----------------------------------------------------------------|
 |x4
 |
e------------------------------------------------------------------|
B|-----------------------------------------------------------------|
G|--4-4-44-4-4-44-444-4-4-4----------------------------------------|
D|--4-4-44-4-4-44-444-4-4-4----------------------------------------|
A|-----------------------------------------------------------------|
E|-----------------------------------------------------------------|
x4 - - -- - - -- --- - - -



e|-----------------------------------------------------------------|
B|-12121212121212-14141414-12121212121212-141414-191919------------|
G|-----------------------------------------------------------------|
D|-----------------------------------------------------------------|
A|-----------------------------------------------------------------|
E|-----------------------------------------------------------------|
 |
 |
e------------------------------------------------------------------|
B|-----------------------------------------------------------------|
G|--4-4-44-4-4-44-444-4-4-4----------------------------------------|
D|--4-4-44-4-4-44-444-4-4-4----------------------------------------|
A|-----------------------------------------------------------------|
E|-----------------------------------------------------------------|
x2  - - -- - - -- --- - - -



e|-----------------------------------------------------------------|
B|--12121212121212-14141414----------------------------------------|
G|--------------------------15151515151515-------------------------|
D|-----------------------------------------------------------------|
A|-----------------------------------------------------------------|
E|-----------------------------------------------------------------|
 |
 |
e------------------------------------------------------------------|
B|-----------------------------------------------------------------|
G|--4-4-44-4-4-44-444-4-4-4----------------------------------------|
D|--4-4-44-4-4-44-444-4-4-4----------------------------------------|
A|-----------------------------------------------------------------|
E|-----------------------------------------------------------------|
x3  - - -- - - -- --- - - -



e|-19-----19-----21-----19-----21----------------------------------|
B|-16-----16-----19-----16-----19----------------------------------|
G|-----------------------------------------------------------------|
D|-----------------------------------------------------------------|
A|-----------------------------------------------------------------|
E|-----------------------------------------------------------------|
 |  x7     x7    x4     x4      x7
 |
e------------------------------------------------------------------|
B|-----------------------------------------------------------------|
G|--4-4-44-4-4-44-444-4-4-4----------------------------------------|
D|--4-4-44-4-4-44-444-4-4-4----------------------------------------|
A|-----------------------------------------------------------------|
E|-----------------------------------------------------------------|
x5  - - -- - - -- --- - - -



e|-----------------------------------------------------------------|
B|----16--16--16---16----------------------------------------------|
G|--18--18--18---18--18-14\----------------------------------------|
D|-----------------------------------------------------------------|
A|-----------------------------------------------------------------|
E|-----------------------------------------------------------------|



************************************

| /   slide up
| \   slide down
| h   hammer-on
| -   Palm Mute
| p   pull-off
| ~   vibrato
| +   harmonic
| x   Mute note
| b   Bend
| pb  Pre-bend
| br  Bend release
| pbr Pre-bend release
| brb Bend release bend

************************************
Tap to rate this tab
# A B C D E F G H I J K L M N O P Q R S T U V W X Y Z