Song name
# A B C D E F G H I J K L M N O P Q R S T U V W X Y Z

Kings Of Leon - Fans tab

Kings of Leon
FANS
Tabbed by : Mrhamster

Guitar 1 (Acoustic)
VERSE And CHORUS
 
    E  A          B          A
e|--0--0-0-0-0-0--0-0-0-0-0--0--|
B|--0--0-0-0-0-0--0-0-0-0-0--0--|
G|--1--6-6-6-6-6--8-8-8-8-8--6--|
D|--2--7-7-7-7-7--9-9-9-9-9--7--|
A|--2--7-7-7-7-7--9-9-9-9-9--7--|
E|--0--0-0-0-0-0--0-0-0-0-0--0--|

Guitar 2 (Electric)
(Heavy reverb)

INTRO 
Hold for feedback (Also one in first verse 0:44)

    E
e|--4--|
B|--5--|
G|--4--|
D|--6--|
A|--7--|
E|--x--|

CHORUS

    E   A      B       A
e|--4---9------11------9------|
B|--5---10-----12------10-----|
G|--4---9--x5--11--x5--9------|
D|--6---11-----13------11-----|
A|--x---x------x-------x------|
E|--x---x------x-------x------|


Solo

e|------------------------------------------------|
B|-----------10----------10----------10--12-------|
G|--11s13-13----13-13-13----13-13-13-----14bu16---|
D|------------------------------------------------|
A|------------------------------------------------|
E|------------------------------------------------|

e|------------------------------------------------|
B|--------0---------------------------------------|
G|--4-4s6---x4--(or)--4-4s6-4--x4-----------------|
D|------------------------------------------------|
A|------------------------------------------------|
E|------------------------------------------------|

e|------------------------------------------------|
B|-----------10----------10----------10--12-------|
G|--11s13-13----13-13-13----13-13-13-----14bu16---|
D|------------------------------------------------|
A|------------------------------------------------|
E|------------------------------------------------|

e|------------------------------------------------------12-|
B|-----------14----------14----------14----------14-----12-|
G|--14s16-16----16-16-16----16-16-16----16-16-16----16--13-|
D|---------------------------------------------------------|
A|---------------------------------------------------------|
E|---------------------------------------------------------|

*Legend*
S Slide
Bu Bend up 
Tap to rate this tab
 
# A B C D E F G H I J K L M N O P Q R S T U V W X Y Z