Song name
# A B C D E F G H I J K L M N O P Q R S T U V W X Y Z

Kings Of Leon - Dont Matter tab

Kings Of Leon - Don't Matter
Tuning: Standard

e|-----------------------------------------------------------------|
B|-----------------------------------------------------------------|
G|-----------------------------------------------------------------|
D|-12---------11---------4-----------------------------------------|
A|-12---------11---------4-----------------------------------------|
E|-10---------9----------2-----------------------------------------|
 |
e|-----------------------------------------------------------------|
B|-----------------------------------------------------------------|
G|-----------------------------------------------------------------|
D|-12---------11--------3/4----------------------------------------|
A|-12---------11--------x/4----------------------------------------|
E|-10---------9---------1/2----------------------------------------|


e|-----------------------------------------------------------------|
B|-----------------------------------------------------------------|
G|-----------------------------------------------------------------|
D|-7---------6---------4-------------------------------------------|
A|-7---------6---------4-------------------------------------------|
E|-5---------4---------2-------------------------------------------|
 |
e|-2-2------2-2--------2-2-----------------------------------------|
B|-3-3------3-3--------3-3-----------------------------------------|
G|-----------------------------------------------------------------|
D|-----------------------------------------------------------------|
A|-----------------------------------------------------------------|
E|-----------------------------------------------------------------|


e|-----------------------------------------------------------------|
B|-----------------------------------------------------------------|
G|-----------------------------------------------------------------|
D|-12---------11---------4-----------------------------------------|
A|-12---------11---------4-----------------------------------------|
E|-10---------9----------2-----------------------------------------|
 |
e|-----------------------------------------------------------------|
B|-----------------------------------------------------------------|
G|-----------------------------------------------------------------|
D|-12---------11--------3/4----------------------------------------|
A|-12---------11--------x/4----------------------------------------|
E|-10---------9---------1/2----------------------------------------|


e|-----------------------------------------------------------------|
B|-----------------------------------------------------------------|
G|-----------------------------------------------------------------|
D|-7---------6---------4-------------------------------------------|
A|-7---------6---------4-------------------------------------------|
E|-5---------4---------2-------------------------------------------|
 |  
e|-2-2------2-2--------2-2-----------------------------------------|
B|-3-3------3-3--------3-3-----------------------------------------|
G|-----------------------------------------------------------------|
D|-----------------------------------------------------------------|
A|-----------------------------------------------------------------|
E|-----------------------------------------------------------------|


e|---17---17-------------------------------------------------------|
B|-17^-17^--17^-17-14--14------------------------------------------|
G|-------------------16-------14-1515v-14-1515^-14-----------------|
D|-----------------------16----------------------------------------|
A|-----------------------------------------------------------------|
E|-----------------------------------------------------------------|
1:35

e|-------------------------------------------------14h17p14-------------------|
B|-7h10p7-7-7-1010^10^10^107h1010^/12^/13^/15^-17^---------17p14--------------|
G|-------9-9----------------------------------------------------16-14-16-15v--|
D|----------------------------------------------------------------------------|
A|----------------------------------------------------------------------------|
E|----------------------------------------------------------------------------|
1:42                                            1:46

e|-19^19-17------------------------------------14------14-----------14--------|
B|----------19-17-19pb19-1717\1414V--------17^----17^^---1714---1417--1717^---|
G|----------------------------------16br-14-------------------16--------------|
D|----------------------------------------------------------------------------|
A|----------------------------------------------------------------------------|
E|----------------------------------------------------------------------------|
1:48                                 1:53

e|----17---17---17---17--16^---------------------------------------|
B|-17^--17^--17^--17^----------------------------10101010--9999----|
G|---------------------------11p9---------9h11---9-9-9-9---8888----|
D|-------------------------------11p9-9h11-------------------------|
A|-----------------------------------12----------------------------|
E|-----------------------------------------------------------------|


e|-----------------------------------------------------------------|
B|-----------------------------------------------------------------|
G|-----------------------------------------------------------------|
D|-12---------11---------4-----------------------------------------|
A|-12---------11---------4-----------------------------------------|
E|-10---------9----------2-----------------------------------------|  
 |
e|-----------------------------------------------------------------|
B|-----------------------------------------------------------------|
G|-----------------------------------------------------------------|
D|-12---------11--------3/4----------------------------------------|
A|-12---------11--------x/4----------------------------------------|
E|-10---------9---------1/2----------------------------------------|
 |  
e|-2-2------2-2--------2-2-----------------------------------------|
B|-3-3------3-3--------3-3-----------------------------------------|
G|-----------------------------------------------------------------| (on 3rd play through)
D|-----------------------------------------------------------------|
A|-----------------------------------------------------------------|
E|-----------------------------------------------------------------|


e|-----------------------------------------------------------------|
B|-----------------------------------------------------------------|
G|-----------------------------------------------------------------|
D|-7---------6---------4-------------------------------------------|
A|-7---------6---------4-------------------------------------------|
E|-5---------4---------2-------------------------------------------|
 |  
e|-2-2------2-2--------2-2-----------------------------------------|
B|-3-3------3-3--------3-3-----------------------------------------|
G|-----------------------------------------------------------------|
D|-----------------------------------------------------------------|
A|-----------------------------------------------------------------|
E|-----------------------------------------------------------------|


e|-----------------------------------------------------------------|
B|-----------------------------------------------------------------|
G|-----------------------------------------------------------------|
D|-7---------6---------12---------10---------4---------------------|
A|-7---------6---------12---------10---------4---------------------|
E|-5---------4---------10---------9----------2---------------------|
 |  
e|-2-2-------2-2-------2-2--------2-2------------------------------|
B|-3-3-------3-3-------3-3--------3-3------------------------------|
G|-----------------------------------------------------------------|
D|-----------------------------------------------------------------|
A|-----------------------------------------------------------------|
E|-----------------------------------------------------------------|


************************************

| /   slide up
| \   slide down
| h   hammer-on
| -   Palm Mute
| p   pull-off
| v   vibrato
| ~   Ring
| +   harmonic
| x   Mute note
| b   Bend
| pb  Pre-bend
| br  Bend release
| pbr Pre-bend release
| brb Bend release bend

************************************
Tap to rate this tab
# A B C D E F G H I J K L M N O P Q R S T U V W X Y Z