Song name
# A B C D E F G H I J K L M N O P Q R S T U V W X Y Z

Kings Of Leon - Rock City tab

This is my best attempt at this tab; there isn't a single good tab for it anywhere on the internet 
(without paying for it). I figured it out watching some guy play it on youtube, correct any errors , 
much appreciated.


Intro:

e|--------------------------------------------------------------------------|
B|----------------------10------------------------------7-8-7-8-7-----------|
G|--9b11-hold--11-9-11----9b11-9b11r9-9b11r9-7-9-7---7-----------9----------|
D|------------------------------------------------9----------------9-9b11-9-|
A|--------------------------------------------------------------------------|
E|--------------------------------------------------------------------------|


e|--------------------------------------------------------------------------|
B|-----------3----5----7-9b11-----------9b11r9-7-8-7-/-12--14--16-----------|
G|----------------------------11--7-9-7----------------13b-16b—17b----------|
D|-4-2-4-2/4--4/5--5/7------------------------------------------------------|
A|--------------------------------------------------------------------------|
E|--------------------------------------------------------------------------|

e|--------------------------------------------------------------------------|
B|--------8------10------12-------14----15---15/----------------------------|
G|-----------------------------------14------14/----------------------------|
D|----8/9---9/10---10/12----12/14-------------------------------------------|
A|--------------------------------------------------------------------------|
E|--------------------------------------------------------------------------|


Verse:

D, Bm, A, G x2 (Strum pattern 1)
D, Bm, A, G x1 (Strum pattern 2)

Chorus:

e|----------------------------------------------16V-------------------------|
B|--------------------------------------------------------------------------|
G|---1-r-------------------------------------/16----------------------------|
D|---2-r--------------------------------------------------------------------|
A|---2-r--------------------------------------------------------------------|
E|--------------------------------------------------------------------------|

Post Chorus:   x4

e|--2-3-3-2-5p2h3p2h3-2-2-------------2r(on the 4th x)----------------------|
B|--3-3-3-3-3-3-3-3-2-3-3-------------3r------------------------------------|
G|--2-2-2-2-2-2-2-2-2-2-2-------------2r------------------------------------|
D|--------------------------------------------------------------------------|
A|--------------------------------------------------------------------------|
E|--------------------------------------------------------------------------|


Verse:

D, Bm, A, G x1 (Strum pattern 1)
D, Bm, A, G x1 (Strum pattern 2)


Chorus:

e|----------------------------------------------16V-------------------------|
B|--------------------------------------------------------------------------|
G|---1-r-------------------------------------/16----------------------------|
D|---2-r--------------------------------------------------------------------|
A|---2-r--------------------------------------------------------------------|
E|--------------------------------------------------------------------------|

Solo:

e|-----------------------------------------------------3------15p14---------|
B|--------------------------------3------5-----7-7/5/3-5b--3---------15/17--|
G|----------------------------------------------------------------------19v-|
D|---0-4-0-5-4-2p---4p-2h-4p-2h-4----4/5---5/7------------------------------|
A|-2--------------2v--------------------------------------------------------|
E|--------------------------------------------------------------------------|

Bridge:

D(let ring), A(let ring) ,G(let ring)  x1

Chorus:

e|----------------------------------------------16V-------------------------|
B|--------------------------------------------------------------------------|
G|---1-r-------------------------------------/16----------------------------|
D|---2-r--------------------------------------------------------------------|
A|---2-r--------------------------------------------------------------------|
E|--------------------------------------------------------------------------|


Post Chorus:   x2

e|--2-3-3-2-5p2h3p2h3-2-2---------------------------------------------------|
B|--3-3-3-3-3-3-3-3-2-3-3---------------------------------------------------|
G|--2-2-2-2-2-2-2-2-2-2-2---------------------------------------------------|
D|--------------------------------------------------------------------------|
A|--------------------------------------------------------------------------|
E|--------------------------------------------------------------------------|

Chorus:

e|----------------------------------------------16V-------------------------|
B|--------------------------------------------------------------------------|
G|---1-r-------------------------------------/16----------------------------|
D|---2-r--------------------------------------------------------------------|
A|---2-r--------------------------------------------------------------------|
E|--------------------------------------------------------------------------|



Outro:

e|--------------------------------------------------------------------------|
B|----------------------10------------------------------7-8-7-8-7-----------|
G|--9b11-hold--11-9-11----9b11-9b11r9-9b11r9-7-9-7---7-----------9----------|
D|------------------------------------------------9----------------9-9b11-9-| 
A|--------------------------------------------------------------------------|
E|--------------------------------------------------------------------------|


e|--------------------------------------------------------------------------|
B|-----------3----5----7-9b11-----------9b11r9-7-8-7-/-12--14--16-----------|
G|----------------------------11--7-9-7----------------13b-16b—17b----------|
D|-4-2-4-2/4--4/5--5/7------------------------------------------------------|
A|--------------------------------------------------------------------------|
E|--------------------------------------------------------------------------|

e|--------------------------------------------------------------------------|
B|--------8v----------------------------------------------------------------|
G|--------------------------------------------------------------------------|
D|----8/9-------------------------------------------------------------------|
A|--------------------------------------------------------------------------|
E|--------------------------------------------------------------------------|
Tap to rate this tab
 
# A B C D E F G H I J K L M N O P Q R S T U V W X Y Z