Guitaretab - guitar tabs
Song name
# A B C D E F G H I J K L M N O P Q R S T U V W X Y Z

Kings Of Leon - Joes Head tab

Artist: Kings Of Leon
Song: Joes Head
Album: Youth Young Manhood
Tab by: Mwoit 
Email: mwoit@lycos.com

Intro:

Guitar 1:

e|-----------------------------|      Repeat several times
B|---0-0-0-2-2-2-4-4-4-2-2-2---|  
G|---1-1-1-2-2-2-4-4-4-2-2-2---|
D|---2-2-2-4-4-4-6-6-6-4-4-4---|
A|---2-2-2-4-4-4-6-6-6-4-4-4---|
E|-----------------------------|

Guitar 2:


e|----------5p4-4---5p4-4---5p4-7-----|  
B|-------------4-------4-------4------|  
G|------------------------------------|
D|------------------------------------|
A|------------------------------------|
E|------------------------------------|

Verse:

Guitar 1:

e|-----------------------------|      Repeat several times
B|---0-0-0-2-2-2-4-4-4-2-2-2---| 
G|---1-1-1-2-2-2-4-4-4-2-2-2---|
D|---2-2-2-4-4-4-6-6-6-4-4-4---|
A|---2-2-2-4-4-4-6-6-6-4-4-4---|
E|-----------------------------|

Bridge:

Guitar 1:

"It's too late for apoligises, there falling at my feet"

e|--------------------------------------------|      
B|----5-----------------------8---------------|
G|----6-----------------------9---------------|
D|----7-----------------------10--------------|
A|----7-----------------------10--------------|
E|--------------------------------------------|

Chorus:

Guitar 1:

E|-----------------------------222--444----------------------|
B|----------0------0----0------222--444----------------------|
G|-----0h1---0h1------1--------222--444----------------------|
D|-----------------------------222--444----------------------|
A|-----------------------------------------------------------|
E|--0--------------------------------------------------------|
[ Tab from: http://www.guitaretab.com/k/kings-of-leon/51765.html ]
E|-----------------------------222---------------------------|
B|----------0------0----0------222---------------------------|
G|------0h1---0h1----1---------222--444----------------------|
D|-----------------------------222--666----------------------|
A|----------------------------------666----------------------|
E|--0--------------------------------------------------------|

E|-----------------------------222--444----------------------|
B|-----------0------0----0-----222--444----------------------|
G|------0h1---0h1----1---------222--444----------------------|
D|-----------------------------222--444----------------------|
A|-----------------------------------------------------------|
E|--0--------------------------------------------------------|

E|-----------------------------222---------------------------|
B|-----------0------0----0-----222---------------------------|
G|------0h1---0h1----1---------222--444--2-------------------|
D|-----------------------------222--666--4-------------------|
A|----------------------------------666--4-------------------|
E|--0--------------------------------------------------------|

Solo:

Guitar 2:

Solo
E|------------------------------------------------------------------------|
B|------------------------------------------------------------------------|
G|--------------4-6-4---------4--9-6----------4-6-4-6-9-8-9-11-9-11-12----|
D|-4-4-4---4-6--------6-4-6-----------6-4-6-------------------------------|
A|-4-4-4------------------------------------------------------------------|
E|-2-2-2------------------------------------------------------------------|


E|---------4-------5-- ---7 -------5------------------------------|
B|------5----5--7----7--9----9--7-----7----------------------------|
G|-----------------------------------------------------------------|     X2
D|-----------------------------------------------------------------|
A|-----------------------------------------------------------------|
E|-----------------------------------------------------------------|

ORDER OF SONG:

Intro
Verse
Bridge
Chorus
Intro
Verse 
Bridge
Chorus
Solo
Chorus
Fin.
Related for Joes Head tab