Song name
# A B C D E F G H I J K L M N O P Q R S T U V W X Y Z

Kings Of Leon - Happy Alone tab

-------------------------------------------------------------------------------
			     Happy Alone - Kings of Leon
-------------------------------------------------------------------------------

Tabbed by:Grantburgh	
Email:Grantburgh@hotmail.com

This tab mainly follows Matthew's parts.

Go to www.youtube.com/grantburgh1 to hear how this should be done in accordance
to the actual recording.

Peace,, and enjoy! \m/(*_*)\m/

Tuning:DADGBe


The song (intro, verse, chorus) is mainly just a D and G, played as bar chords
with the root note on the 6th string,, as is always
with kings. Caleb pretty much sticks to the D and G in standard tuning,, while
Matthew is in dropped D im sure, which is what 
im tabbing here.



INTRO
                
e|----------10--10--10------------------10--10--10---------------------------|
B|----------10--10--10------------------10--10--10---------------------------|
G|----------11--11--11------------------11--11--11---------------------------|
D|----------12--12--12------------------12--12--12---------------------------|
A|----------12--12--12------------------12--12--12---------------------------|
D|---0--------------------------0--------------------------------------------|
    let ring

e|---------------------------------------------------------------------------|
B|---------------------------------------------------------------------------|
G|---------------------------------------------------------------------------|
D|---------------------------------------------------------------------------|
A|---------------------------------------------------------------------------|
D|---2--4--5------------9-----------12------------5------------7-------------|


VERSE 1

e|----------10--10--10--------------10--10--10-------------10--10--10--------|
B|----------10--10--10--------------10--10--10-------------10--10--10--------|
G|----------11--11--11--------------11--11--11-------------11--11--11--------|
D|----------12--12--12--------------12--12--12-------------12--12--12--------|
A|----------12--12--12--------------12--12--12-------------12--12--12--------|
D|---0-----------------------------------------------------------------------|
     let ring

e|---3------3---3---3---------------3---3---3--------------3---3---3---------|
B|---3------3---3---3---------------3---3---3--------------3---3---3---------|
G|---4------4---4---4---------------4---4---4--------------4---4---4---------|
D|---5------5---5---5---------------5---5---5--------------5---5---5---------|
A|---5------5---5---5---------------5---5---5--------------5---5---5---------|
D|---------------------------------------------------------------------------|

e|----------10--10--10--------------10--10--10-------------10--10--10--------|
B|----------10--10--10--------------10--10--10-------------10--10--10--------|
G|----------11--11--11--------------11--11--11-------------11--11--11--------|
D|----------12--12--12--------------12--12--12-------------12--12--12--------|
A|----------12--12--12--------------12--12--12-------------12--12--12--------|
D|---------------------------------------------------------------------------|
     

e|---3------3---3---3---------------3---3---3--------------3---3---3---------|
B|---3------3---3---3---------------3---3---3--------------3---3---3---------|
G|---4------4---4---4---------------4---4---4--------------4---4---4---------|
D|---5------5---5---5---------------5---5---5--------------5---5---5---------|
A|---5------5---5---5---------------5---5---5--------------5---5---5---------|
D|---------------------------------------------------------------------------|


CHORUS

e|------------------------------------|
B|------------------------------------|
G|---5--4--2--------5--4--2--0--------|   X  8
D|------------------------------------|
A|------------------------------------|
D|------------------------------------|


VERSE 2
                              							  |
e|---------------------------------------------------------------------------|    |
B|---------------------------------------------------------------------------|    |
G|---------------------------------------------------------------------------|    |
D|---4-4-4-4-4-4-7-7--4-4-4-4-4-4-7-7--4-4-4-4-4-4-7-7--4-4-7-7-4-4-7-7------|    |
A|---5-5-5-5-5-5-5-5--5-5-5-5-5-5-5-5--5-5-5-5-5-5-5-5--5-5-5-5-5-5-5-5------|    |
D|---------------------------------------------------------------------------|    |  X2
                  								  |
e|---------------------------------------------------------------------------|    |
B|---------------------------------------------------------------------------|    | 
G|---------------------------------------------------------------------------|    |
D|----9-9-9-9-9-91212---9-9-9-9-9-91212---9-9-9-9-9-91212---9-91212-9-91212--|    |
A|---1010101010101010--1010101010101010--1010101010101010--1010101010101010--|    |
D|---------------------------------------------------------------------------|    |


CHORUS

e|------------------------------------|
B|------------------------------------|
G|---5--4--2--------5--4--2--0--------|   X  8
D|------------------------------------|
A|------------------------------------|
D|------------------------------------|


SOLO                                                                             
  
e|--------------------------------------------------------5-5-5-5-5-5-5-5-5-5---------------|
B|---3-3-3-3-3-3-3-3-3-3-3------6-6-6-6-6-6-6-6-6-6-6-----6-6-6-6-6-6-6-6-6-6---------------|
G|---2-2-2-2-2-2-2-2-4-4-2------7-7-7-7-7-7-7-7-7-7-7---------------------------------------|
D|------------------------------------------------------------------------------------------|
A|------------------------------------------------------------------------------------------|
D|------------------------------------------------------------------------------------------|

e|---10-10-10-10-10-10-10-10-10-10-10-10-10-10-10-10----------------------------------------|
B|---10-10-10-10-10-10-10-10-10-10-10-10-10-10-10-10----------------------------------------|
G|---------------------------12b14----12b14-------12r14--14-14p12----12-14-12-14-12---------|
D|----------------------------------------------------------------14------------------------|
A|------------------------------------------------------------------------------------------|
D|------------------------------------------------------------------------------------------|

e|------------------------------------------------------------------------------------------|
B|-------------------6-------------6-------8------6------8------6-------8---/11-1111111111-8|
G|-------4-----7-------------7---------------------------------------------------0-0-0-0-0-0|
D|---/5-----5-----5------5-------5------5------5------5------5------5------5----------------|
A|------------------------------------------------------------------------------------------|
E|------------------------------------------------------------------------------------------|


BRIDGE

e|---------------------------------------------------------------------------|
B|---------------------------------------------------------------------------|
G|---------------------------------------------------------------------------|
D|------------------------------------------------------9--------------------|
A|------------------------------------------------------9--------------------|
E|---9----7----0--0--0----0--0--0-------------5----7----9--------------------|





e|----------10--10--10------------------10--10--10---------------------------|
B|----------10--10--10------------------10--10--10---------------------------|
G|----------11--11--11------------------11--11--11---------------------------|
D|----------12--12--12------------------12--12--12---------------------------|
A|----------12--12--12------------------12--12--12---------------------------|
D|---0--------------------------0--------------------------------------------|
    let ring

e|---------------------------------------------------------------------------|
B|---------------------------------------------------------------------------|
G|---------------------------------------------------------------------------|
D|---------------------------------------------------------------------------|
A|---------------------------------------------------------------------------|
D|---2--4--5------------9-----------12------------5------------7-------------|

e|------------------------------------|
B|------------------------------------|
G|---5--4--2--------5--4--2--0--------|   X  8
D|------------------------------------|
A|------------------------------------|
D|------------------------------------|

SOLO 2

e|---5--5555------5--5555----7p5------5--------------------------------------|     
B|---6b7---7r6----6b7---7r6-------6b7----7r6-------1010---1010---------------|     
G|--------------------------------------------7----1010---1010---------------|     
D|-----------------------------------------------------12-----12-------------|     
A|---------------------------------------------------------------------------|
E|---------------------------------------------------------------------------|

The solo gets a bit muddy here, its hard to work it out exactly,
concentrate more on gettin a rythm out of ghost notes and scratches
here rather than perfecting your fingering. Just improvise a bit in
D minor pentatonic.

e|---------------------------------------------------------------------------|
B|---1010---1010-------------------------------------------------------------|
G|-------12-----12-----------------------------------------------------------|
D|----------------------5-5-6-7--10-11-12----5-5-6-7--10-11-12---------------|
A|----------------------x-x-x-x---x--x--x----x-x-x-x---x--x--x---------------|
E|----------------------5-5-6-7--10-11-12----5-5-6-7--10-11-12---------------|

e|---------------------------------------------------------------------------|
B|---------------------------------------------------------------------------|
G|---------------------------------------------------------------------------|
D|---5-5-6-7--10-11-12----5-5-6-7--10-11-12----------------------------------|
A|---x-x-x-x---x--x--x----x-x-x-x---x--x--x----------------------------------|
E|---5-5-6-7--10-11-12----5-5-6-7--10-11-12----------------------------------|

e|------------------------------------|                     --0--|
B|------------------------------------|                     --5--|
G|---5--4--2--------5--4--2--0--------|   X  3    End On    --5--|
D|------------------------------------|                     --0--|
A|------------------------------------|                     -----|
D|------------------------------------|                     -----|


| /  slide up
| \  slide down
| h  hammer-on
| p  pull-off
| ~  vibrato
| +  harmonic
| x  Mute note
===============================================================================
Tap to rate this tab
 
# A B C D E F G H I J K L M N O P Q R S T U V W X Y Z