Song name
# A B C D E F G H I J K L M N O P Q R S T U V W X Y Z

Kings Of Leon - Day Old Blues tab

Pretty much this is just a rip off of Joe's Head.

Tuning: standard

Chords used: 
F#m11/C# - x44200
G#m7b13/D# - x66400
E - 022100


Intro:
Just listen to the track for the timing. It's really easy to pick up
 ||---0---0---0------0---0---0------0---0---0-----0---0---0--||
 ||---0---0---0------0---0---0------0---0---0-----0---0---0--||
 ||---4---2---1------4---2---1------2---4---1-----4---2---1--||
 ||---6---4---2------6---4---2------4---6---2-----6---4---2--||
 ||---6---4---2------6---4---2------4---6---2-----6---4---2--||
 ||---x---x---0------x---x---0------x---x---0-----x---x---0--||


Verse: same as intro

 ||---0---0---0------0---0---0------0---0---0-----0---0---0--||
 ||---0---0---0------0---0---0------0---0---0-----0---0---0--||
 ||---4---2---1------4---2---1------2---4---1-----4---2---1--||
 ||---6---4---2------6---4---2------4---6---2-----6---4---2--||
 ||---6---4---2------6---4---2------4---6---2-----6---4---2--||
 ||---x---x---0------x---x---0------x---x---0-----x---x---0--||


Chorus:
Either play the lead part or you can just stay on E
This part just follows the same rhythm as the acoustic i.e. the intro
and verse

 ||-------------||    	||--------------||
 ||---12-10-9---||    	||---17-14-12---||
 ||---13-11-9---||    	||--------------||
 ||-------------|| X3      ||--------------|| Last Time
 ||-------------||    	||--------------||
 ||-------------||    	||--------------||


Bridge:

 ||--0--0--||
 ||--0--0--||
 ||--2--4--||
 ||--4--6--||
 ||--4--6--||
 ||--x--x--||


Enjoy!
Tap to rate this tab
# A B C D E F G H I J K L M N O P Q R S T U V W X Y Z