Song name
# A B C D E F G H I J K L M N O P Q R S T U V W X Y Z

Kings Of Leon - King Of The Rodeo tab

-Kings Of Leon
-King Of The Rodeo
                                              Tabbed by A.Mazzei

Key
/=Slide
*=Bend
r=Reverse Bend
^=Bend string up to


Lead Guitar
e|---------------|-----------|---------------------|
B|---------------|-----------|---------------------|
G|-6-6-6-6-6-6-6-|-6-/-4-/-6-|-6-6-6-6-6-6-6-6-/-9-|
D|---------------|-----------|---------------------|
A|---------------|-----------|---------------------|
E|---------------|-----------|---------------------|


e|---------------|-----------|------|------------------|
B|---------------|-----------|------|------------------|
G|-6-6-6-6-6-6-6-|-6-/-4-/-6-|-6--6-|-6-/-4-/-6--6-6-6-|
D|---------------|-----------|------|------------------|
A|---------------|-----------|------|------------------|
E|---------------|-----------|------|------------------|


e|-------------------5-|-------------------5-|-------------------5-|----------------------|
B|-------------------5-|-------------------5-|-------------------5-|----------------------|
G|---------------------|---------------------|---------------------|----------------------|
D|---------------------|---------------------|---------------------|----------------------|
A|---------------------|---------------------|---------------------|----------------------|
E|-5-0-2-0-2-5-0-2-0---|-5-0-2-0-2-5-0-2-0---|-5-0-2-0-2-5-0-2-0---|-5-0-2-0-2-5-0-2-0-5--|


   8x     8x     16x   8x    8x      16x

e|-------------------|-------------------|
B|-------------------|-------------------|
G|-------------------|-------------------|
D|-------------------|-------------------|
A|---11-----12-----7-|---11-----12-----7-|
E|-9-----10------5---|-9-----10------5---|


e|---------------|-----------|-------------------|
B|---------------|-----------|-------------------|
G|-6-6-6-6-6-6-6-|-6-/-4-/-6-|-6-6-6-6-6-6-6-/-9-|
D|---------------|-----------|-------------------|
A|---------------|-----------|-------------------|
E|---------------|-----------|-------------------|


e|----------------------|-------------------5-|----------------------|-------------------5-|
B|----------------------|-------------------5-|----------------------|-------------------5-|
G|----------------------|---------------------|----------------------|---------------------|
D|----------------------|---------------------|----------------------|---------------------|
A|----------------------|---------------------|----------------------|---------------------|
E|-5-0-2-0-2-5-0-2-0-5--|-5-0-2-0-2-5-0-2-0---|-5-0-2-0-2-5-0-2-0-5--|-5-0-2-0-2-5-0-2-0---|


e|----------------------|-------------------5-|----------------------|-------------------5-|
B|----------------------|-------------------5-|----------------------|-------------------5-|
G|----------------------|---------------------|----------------------|---------------------|
D|----------------------|---------------------|----------------------|---------------------|
A|----------------------|---------------------|----------------------|---------------------|
E|-5-0-2-0-2-5-0-2-0-5--|-5-0-2-0-2-5-0-2-0---|-5-0-2-0-2-5-0-2-0-5--|-5-0-2-0-2-5-0-2-0---|


   8x     8x     16x   8x    8x      16x

e|-------------------|-------------------|
B|-------------------|-------------------|
G|-------------------|-------------------|
D|-------------------|-------------------|
A|---11-----12-----7-|---11-----12-----7-|
E|-9-----10------5---|-9-----10------5---|


Solo

e|-*----------------*----------------*--------------*----------------*------------------|
B|-10^12--10^12r----10^12--10^12r----10^12-10^12----12^14--12^14r----10^12--10^12r------|
G|----------------------------------------------------------------------------------6-6-|
D|--------------------------------------------------------------------------------------|
A|--------------------------------------------------------------------------------------|
E|--------------------------------------------------------------------------------------|


e|----------------------------------------|
B|----------------------------------------|
G|-22222222--44444444--66666666--99999999-|
D|----------------------------------------|
A|----------------------------------------|
E|----------------------------------------|


  8x     8x     16x   8x    8x      16x

e|-------------------|-------------------|
B|-------------------|-------------------|
G|-------------------|-------------------|
D|-------------------|-------------------|
A|---11-----12-----7-|---11-----12-----7-|
E|-9-----10------5---|-9-----10------5---|


  8x     8x     16x   8x    8x      16x

e|-------------------|-------------------|
B|-------------------|-------------------|
G|-------------------|-------------------|
D|-------------------|-------------------|
A|---11-----12-----7-|---11-----12-----7-|
E|-9-----10------5---|-9-----10------5---|


-The solo might not sound as good as the cd, 
but once you get the right distortioned sound
it should sound pretty good.

end...
Tap to rate this tab
# A B C D E F G H I J K L M N O P Q R S T U V W X Y Z