Song name
# A B C D E F G H I J K L M N O P Q R S T U V W X Y Z

Kings Of Leon - Slow Night So Long tab

im 99% sure this is right
tuning standard

intro
guitar 1- let the chord ring

E--------------------------------|
B-5-----------5--7-5-3----3------|
G-4-----------4--6-4-2----2------| x3
D-0------------------------------|
A---0-0-0-0-0-0-0-0-0-0-0-0-0-0-0|
E--------------------------------|

guitar 2
E-------------------------------------|
B-------------------------------------|
G-------------------------------------| after guitar 1 plays his once
D-2-22-2---2-22-2---2/77777777--------|
A-------0---------0-----------9-------|
E-------------------------------9-7-5-|

E------------------------------------|
B------------------------------------|
G------------------------------------|
D-0-00-0---0-00-0---0-00-0---0-00-0--| x4
A------------------------------------|
E--------2--------2--------2--------2|
verses

guitar 1

E----------------------------|
B-5/12-14--------5/12-14-----|
G----------------------------|
D----------------------------|
A----------------------------|
E----------------------------|


E------12------------12----------|
B-5/12----15----5/12----15-------|
G--------------------------------|
D--------------------------------|After playing this go back to
A--------------------------------|the guitar 1intro bit once and then this -
E--------------------------------|play it through once again

Watever bit comes next, dunno what to call it
guitar 1

E------------------------------------------------|
B- ----------------------------------------------|
G-6-6-6-66666666-6-6-6-66666666-7-7-777-777-7-777|
D-7-7-7-77777777-7-7-7-77777777-7-7-777-777-7-777|x2
A-7-7-7-77777777-7-7-7-77777777-5-5-555-555-5-555|
E-5-5-5-55555555-5-5-5-55555555------------------|

Guitar 2

E------------------------------------------------|
B------------------------------------------------|
G------------------------------------------------|
D------------------------------------------------|x2
A-------------------------------0-4-000-000-4-000|
E------------------------------------------------|


Then back to the intro bit with both guitars once, the the verse once, then back to this 
above twice.

Any problems then email me at Cleary_95@hotmail.co.uk
Tap to rate this tab
# A B C D E F G H I J K L M N O P Q R S T U V W X Y Z