Song name
# A B C D E F G H I J K L M N O P Q R S T U V W X Y Z

Kings Of Leon - Mcfearless tab

Band : Kings Of Leon
Song : McFearless
Album : Because of the Times
Tabbed : Dave Mullen



**INTRO/ VERSE**

*Bass*

(Bass starts the song and continues the
 same underneath the lead guitar untill
the chorus)

G|---------7-7-7-7---------7-7-7-7----|
D|------------------------------------|
A|-9-9-9-9---------9-9-9-9------------|
E|------------------------------------|


G|---------7-7-7-7---------7-7-7-7----|
D|-9-9-9-9---------9-9-9-9------------|
A|------------------------------------|
E|------------------------------------|



*Lead Guitar*

(these notes are played twice as fast as the bass
in the song, and have an effect that goes with it
like a cry baby pedal or something? i dont know?)


e|-----------------------------------------------------|
B|-10-10-10-10-10-10-10-10-/-14-14-14-14-14-14-14-14-\-|
G|-----------------------------------------------------|
D|-----------------------------------------------------|
A|-----------------------------------------------------|
E|-----------------------------------------------------|

e|-----------------------------------------------------|
B|-10-10-10-10-10-10-10-10-/-12-12-12-12-12-12-12-12-\-|
G|-----------------------------------------------------|
D|-----------------------------------------------------|
A|-----------------------------------------------------|
E|-----------------------------------------------------|



**CHORUS**

(These are the chords of the chorus, but the lead plays
higher notes and the rhythm plays a cool rhythm all the way
through the chorus with one chord)

*Lead*
(these chords but not played here)
e|---------------------------------------------|
B|---------------------------------------------|
G|-7--------11--------12-----------------------|
D|-7- x 16 -11- x 16 -12-x 32 -----------------|  x 2
A|-5--------9---------10-----------------------|
E|---------------------------------------------|
   D        F#        G

*Rhythm*
e|----------------|
B|----------------|
G|-18-------------|
D|-19-------------|
A|-x--------------|
E|-17-------------|


I have tabbed this song out on Guitar pro too which
clears up all the thing i was saying about the chorus!

Cheers for looking!!
Mullen.
Tap to rate this tab
# A B C D E F G H I J K L M N O P Q R S T U V W X Y Z