Song name
# A B C D E F G H I J K L M N O P Q R S T U V W X Y Z

Kings Of Leon - True Love Way tab

Rhythm Guitar - Caleb Followill
Lead Guitar - Matthew Followill

Rhythm Guitar - Intro
   D                             B
e-----------------------------------------------------------|
B-----------------------------------------------------------|
G----------7-7------------7-7------------4-4------------4-4-|
D--7-7-7-7-7-7----7-7-7-7-7-7----4-4-4-4-4-4----4-4-4-4-4-4-|
A--5-5-5-5-5-5----5-5-5-5-5-5----2-2-2-2-2-2----2-2-2-2-2-2-|
E-----------------------------------------------------------|
   G
e-----------------------------------------------------------|
B-----------------------------------------------------------|
G----------------------------------------4-4------------4-4-|
D----------5-5------------5-5----4-4-4-4-4-4----4-4-4-4-4-4-|
A--5-5-5-5-5-5----5-5-5-5-5-5----2-2-2-2-2-2----2-2-2-2-2-2-|
E--3-3-3-3-3-3----3-3-3-3-3-3-------------------------------|

Lead Guitar – Harmonics until vocals start

e------------------------|
B-------12----12---------|
G----7--------------7----|
D------------------------|
A------------------------|
E------------------------|

Rhythm Guitar – "Oh Oh Oh Woah Oh Oh" and Chorus parts
e-----------------------------------------------------------|
B-----------------------------------------------------------|
G----------7-7------------7-7------------4-4------------4-4-|
D--7-7-7-7-7-7----7-7-7-7-7-7----4-4-4-4-4-4----4-4-4-4-4-4-|
A--5-5-5-5-5-5----5-5-5-5-5-5----2-2-2-2-2-2----2-2-2-2-2-2-|
E-----------------------------------------------------------|

e-----------------------------------------------------------|
B-----------------------------------------------------------|
G----------------------------------------4-4------------4-4-|
D----------5-5------------5-5----4-4-4-4-4-4----4-4-4-4-4-4-|
A--5-5-5-5-5-5----5-5-5-5-5-5----2-2-2-2-2-2----2-2-2-2-2-2-|
E--3-3-3-3-3-3----3-3-3-3-3-3-------------------------------|

Lead Guitar - "Oh Oh Oh Woah Oh Oh" and Chorus parts
    D                            B
e-----------------------------------------------------------|
B-----------------------------------------------------------|
G-----------------------------------------------------------|
D---12---------------------------9--------------------------|
A---12---------------------------9--------------------------|
E---10---------------------------7--------------------------|
    G
e-----------------------------------------------------------|
B-----------------------------------------------------------|
G-----------------------------------------------------------|
D---3----------------------------9--------------------------|
A---3----------------------------9--------------------------|
E---5----------------------------7--------------------------|

Rhythm Guitar - Verse - Strum once everytime Lead goes back to the (D)
e-----------------------------------------------------------|
B-----------------------------------------------------------|
G-----------------------------------------------------------|
D--10-------------------------------------------------------|
A--10-------------------------------------------------------|
E--12-------------------------------------------------------|

Lead Guitar – Verse – Come in After 2 Bars.
e----------------------------------------------------|
B----------------------------------------------------|
G---7---7---7-7/4--4--4-4---4-4---4------------------|
D---7---7---7-7/4--4--4-4---4-4---4---9-9/5--5--5-5--|
A---5---5---5-5/2--2--2-2---2-2---2---9-9/5--5--5-5--|
E-------------------------------------7-7/3--3--3-3--|

Bridge – Both guitars (Play 4 times, last time lead stops on (A) and goes to solo. 
plays the last chord)
    B     G     A    D
e------------------------|
B------------------------|
G---88-----4----6----11--|
D---99-----5----7----12--|
A---99-----5----7----12--|
E---77-----3----5----10--|

Rhythm Guitar - Solo part (plays the same thing as the verse, you can do a D barre chord 
you'd like)

Lead Guitar - Solo
e-12----12-12----12-12----12-14----14---14----|
B-15b17----15b17----15b17------15~---15~--15~-|
G---------------------------------------------|
D---------------------------------------------|
A---------------------------------------------|
E---------------------------------------------|

e-12----12-12----12-12----12-14----14----14---|
B-15b17----15b17----15b17------15~---15~--15~-|
G---------------------------------------------|
D---------------------------------------------|
A---------------------------------------------|
E---------------------------------------------|

e------2-2-------------------------2-2----------2-2-2-2-|
B-15/3-----3-3-3----------3-3------------3---3----------|
G-----------------4-4-4-2------------------4---4--------|
D-------------------------------------------------------|
A-------------------------------------------------------|
E-------------------------------------------------------|

e-------14-14------------------------14-14------------------------|
B-15-15-------15-15-17-17-15--15~----------15-15-17-17-15-15--15~-|
G-----------------------------------------------------------------|
D-----------------------------------------------------------------|
A-----------------------------------------------------------------|
E-----------------------------------------------------------------|

e-12----12-12----12-12----12-14----14---14----|
B-15b17----15b17----15b17------15~---15~--15~-|
G---------------------------------------------|
D---------------------------------------------|
A---------------------------------------------|
E---------------------------------------------|

e-12----12-12----12-12----12-14----14----14---|
B-15b17----15b17----15b17------15~---15~--15~-|
G---------------------------------------------|
D---------------------------------------------|
A---------------------------------------------|
E---------------------------------------------|

Rhythm Guitar outro - Play the same thing as the lead guitars verse

Lead Guitar plays this til end (after the Rhythm plays through its part once)- play with 
palm mute
e----------------------------------------------|
B----------------------------------------------|
G----------------------------------------------|
D--9-9--7-7---(play 16 times----9-9--7-77b-----|
A--------------last time play)-----------------|
E----------------------------------------------|
Tap to rate this tab
# A B C D E F G H I J K L M N O P Q R S T U V W X Y Z