Song name
# A B C D E F G H I J K L M N O P Q R S T U V W X Y Z

Kings Of Leon - Runner tab

Intro

Rhythm
e|-------------------------------------------------|
B|-------------------------------------------------|
G|-------------------------------------------------|
D|-------------------------------------------------|
A|----2--2--2--2--2--2--2--2--2—-2—-2-—2—-2—-2-----|
E|---0—-0--4—-4—-5--5--4—-4--5—-5--4--4--4—-4--0---|

Lead 
e|---0---4---7---12---7---12---7---7---5---4-------|
B|-------------------------------------------------|
G|-------------------------------------------------|
D|---2---6---9---14---9---14---9---9---7---6-------|
A|-------------------------------------------------|
E|-------------------------------------------------|

Bass Line
e|-------------------------------------------------|
B|-------------------------------------------------|
G|-------------------------------------------------|
D|-------------------------------------------------|
A|-------------------------------------------------|
E|---0---4---7---12---7---12---7---7---5---4-------|

Then
e|---5/7-7-7/5-5-5/7-7-7/5---|
B|---5/7-7-7/5-5-5/7-7-7/5---|
G|---6/8-8-8/6-6-6/8-8-8/6---|
D|---7/9-9-9/7-7-7/9-9-9/7---|
A|---7/9-9-9/7-7-7/9-9-9/7---|
E|---5/7-7-7/5-5-5/7-7-7/5---|
Emphasize the bottom strings

Build Up
“why she say she’s on her own”
e|-------------------------------------|
B|-------------------------------------|
G|---1-1-1-1-1-1-1-1-1-1-1-1-1-1-1-----|
D|---2-2-2-2-2-2-2-2-2-2-2-2-2-2-2-----|
A|---2-2-2-2-2-2-2-2-2-2-2-2-2-2-2-----|
E|---0—0-0-0-0-0-0-0-0-0-0-0-0-0-0-----|
Palm Mute 

e|---5/7-7-7/5-5-5/7-7-7/5---|
B|---5/7-7-7/5-5-5/7-7-7/5---|
G|---6/8-8-8/6-6-6/8-8-8/6---|
D|---7/9-9-9/7-7-7/9-9-9/7---|
A|---7/9-9-9/7-7-7/9-9-9/7---|
E|---5/7-7-7/5-5-5/7-7-7/5---|

“I’ll be pacing on the phone”
e|-------------------------------------|
B|-------------------------------------|
G|---1-1-1-1-1-1-1-1-1-1-1-1-1-1-1-----|
D|---2-2-2-2-2-2-2-2-2-2-2-2-2-2-2-----|
A|---2-2-2-2-2-2-2-2-2-2-2-2-2-2-2-----|
E|---0—0-0-0-0-0-0-0-0-0-0-0-0-0-0-----|

e|---5/7-7-7/5-5-5/7-7-7/5---|
B|---5/7-7-7/5-5-5/7-7-7/5---|
G|---6/8-8-8/6-6-6/8-8-8/6---|
D|---7/9-9-9/7-7-7/9-9-9/7---|
A|---7/9-9-9/7-7-7/9-9-9/7---|
E|---5/7-7-7/5-5-5/7-7-7/5---|

You get the idea

Please rate/comment
Tap to rate this tab
# A B C D E F G H I J K L M N O P Q R S T U V W X Y Z