Song name
# A B C D E F G H I J K L M N O P Q R S T U V W X Y Z

Kings Of Leon - Fans tab

Help us improve GuitareTab! Take a short survey!
Fans-Kings Of Leon

Verse

Guitar 1 (Acoustic Guitar)

e-0-0-0-0-0--0-0-0-0-0--0-0-0-0-0--|
B-0-0-0-0-0--0-0-0-0-0--0-0-0-0-0--|
G-1-1-1-1-1--6-6-6-6-6--8-8-8-8-8--|
D-2-2-2-2-2--7-7-7-7-7--9-9-9-9-9--|
A-2-2-2-2-2--7-7-7-7-7--9-9-9-9-9--|
E-0-0-0-0-0--5-5-5-5-5--7-7-7-7-7--|

Guitar 2 (Electric)

Either plays The Above Or Just Acquires Feedback.

Chorus

Guitar 1 (Acoustic)

e-0-0-0-0-0--0-0-0-0-0--0-0-0-0-0--|
B-0-0-0-0-0--0-0-0-0-0--0-0-0-0-0--|
G-1-1-1-1-1--6-6-6-6-6--8-8-8-8-8--|
D-2-2-2-2-2--7-7-7-7-7--9-9-9-9-9--|
A-2-2-2-2-2--7-7-7-7-7--9-9-9-9-9--|
E-0-0-0-0-0--5-5-5-5-5--7-7-7-7-7--|

Guitar 2 (Electric)

e-0-0-0-0-0--0-0-0-0-0--0-0-0-0-0--|
B-0-0-0-0-0--0-0-0-0-0--0-0-0-0-0--|
G-1-1-1-1-1--6-6-6-6-6--8-8-8-8-8--|
D-2-2-2-2-2--7-7-7-7-7--9-9-9-9-9--|
A-2-2-2-2-2--7-7-7-7-7--9-9-9-9-9--|
E-0-0-0-0-0--5-5-5-5-5--7-7-7-7-7--|

Solo

Guitar 1 (Acoustic)

e-0-0-0-0-0--0-0-0-0-0--0-0-0-0-0--|
B-0-0-0-0-0--0-0-0-0-0--0-0-0-0-0--|
G-1-1-1-1-1--6-6-6-6-6--8-8-8-8-8--|
D-2-2-2-2-2--7-7-7-7-7--9-9-9-9-9--|
A-2-2-2-2-2--7-7-7-7-7--9-9-9-9-9--|
E-0-0-0-0-0--5-5-5-5-5--7-7-7-7-7--|

Guitar 2 (Electric)

e-------0-0-0-0-0-0-0-0----------------------------|
B-0/////9h10-9h10-9h10br--0-0-0-0-0-0-0-0-0-0-0-0--|
G-------------------------8-8-9-8-8-8-9-8-8-8-9-9--| 
D--------------------------------------------------| 
A--------------------------------------------------|
E--------------------------------------------------| 

Guitar 2 Slides On From Nowhereand plays the open strings with the other notes.
Related for Fans tab