Song name
# A B C D E F G H I J K L M N O P Q R S T U V W X Y Z

Kings Of Leon - Charmer tab

song : Charmer
tuning - standard (eadgbe)
<>=harmonic
b=bend
p=pull off


Intro (bass)
e|------------------------------|
b|------------------------------|
g|------------------------------|
d|------------------------------|
a|--------2-2-2-2---------------|
E|-3-3-3-3-------0-0-0-0-2-2-2-2|

Intro (gtr I)
e|-----------------------|
b|-----------------------|
g|-----------------------|
d|-----------4----4-4-5-5|
a|------2-4-5-----4-4-5-5|
E|-0-2-3------0-0-2-2-3-3|


verse

Waw, she's always looking at me...
e|--------------------------------|
b|--------------------------------|
g|---------4-4-4-4----------------|
d|-5-5-5-5-4-4-4-4-2-2-2-2-4-4-4-4|
a|-5-5-5-5-2-2-2-2-2-2-2-2-4-4-4-4|
E|-3-3-3-3---------0-0-0-0-2-2-2-2|


verse 2 (gtr II)

e|-----------|    e|-----14-------|
b|---<7>-----|    b|--------------|
g|-----------|    g|--------------|
d|-----------| or d|--------------|
a|-----------|    a|--------------|
e|-----------|    E|--------------|


verse 2 gtr II

Waw, she's always looking at me..
e|--7-7-7-7-7-|
b|-8-8-8-8-8--|
g|------------|
d|------------|
a|------------|
e|------------|

bridge (gtr I)
e|--10-10--8-8-8---|
b|--12-12-10-7-7---|
g|-----------------|
d|-----------------|
a|-----------------|
e|-----------------|

guitar (II)
e|---------|
b|--12-----|
g|--12-----| - just keep playing that until the solo
d|---------|
a|---------|
e|---------|

solo
e|---------------------------------------------------------|
b|--------------------------------------12p0-0-12p0-0-12p0-|
g|12p0-0-12p0-0-12p0-12p0-0-12p0-0-12p0--------------------|
d|---------------------------------------------------------|
a|---------------------------------------------------------|
e|---------------------------------------------------------|

----------------15-|
-15------15--12----|
----14-12--14------|
-------------------|
-------------------|
-------------------|

e|---------------------------------------------------------|
b|--------------------------------------12p0-0-12p0-0-12p0-|
g|12p0-0-12p0-0-12p0-12p0-0-12p0-0-12p0--------------------|
d|---------------------------------------------------------|
a|---------------------------------------------------------|
e|---------------------------------------------------------|

----------------15-|
-15------15--12----|
----14-12--14------|
-------------------|
-------------------|
-------------------|

e|---------------------------------------|
b|----------12p0-12p0---------15p0-15p0--|
g|-12p0-12p0---------14p0-14p0-----------|
d|---------------------------------------|
a|---------------------------------------|
e|---------------------------------------|

thats all folks...
Tap to rate this tab
# A B C D E F G H I J K L M N O P Q R S T U V W X Y Z