Song name
# A B C D E F G H I J K L M N O P Q R S T U V W X Y Z

Kings Of Leon - Trunk tab

Trunk

Tuning: E,a,d,g,b,e

Intro

Guitar 1.
e -----------------------------------------------------------------|
b -----------------------------------------------------------------|
g -----------------------------------------------------------------|
d -----------------------------------------------------------------|  Until
a ----10---10---10---10---10---10---10---10------------------------|  1.verse
E --0----0----0----0----0----0----0----0---------------------------|

Guitar 2.
e -----------------------------------------------------------------|
b -----------------------------------------------------------------|
g -----------------------------------------------------------------| X4
d -----------------------------------------------------------------|
a --10-10--9-9--5-5--5-5--5-5--------------------------------------|
E -----------------------------------------------------------------|

Chorus

Guitar 1.
e ---------------0---------------------------------------------------|
b ---------0-------0-------------------------------------------------|
g -------1-----------1-----------------------------------------------|
d -----2---------------2---------------------------------------------|
a ---2-------------------2-------------------------------------------|
E -0-----------------------------------------------------------------|

Guitar 2.

e --------------0----------------------------------------------------|
b -----7/9b-------0--------------------------------------------------|
g ------------------1------------------------------------------------|
d --------------------2----------------------------------------------|
a ----------------------2--------------------------------------------|
E -------------------------------------------------------------------|

Guitar 1.
e ---------------0---------------------------------------------------|
b -----------------0-------------------------------------------------|
g -------6-----------6-----------------------------------------------|
d -----7---------------7---------------------------------------------|
a ---7-------------------7-------------------------------------------|
E -5-----------------------------------------------------------------|

Guitar 2.

e ---------------0---------------------------------------------------|
b -----4/5---------0-------------------------------------------------|
g -------------------6-----------------------------------------------|
d ---------------------7---------------------------------------------|
a -----------------------7-------------------------------------------|
E -------------------------------------------------------------------|

Guitar 1.
e ---------------0---------------------------------------------------|
b ---------0-------0-------------------------------------------------|
g -------1-----------1-----------------------------------------------|
d -----2---------------2---------------------------------------------|
a ---2-------------------2-------------------------------------------|
E -0-----------------------------------------------------------------|

Guitar 2.

e --------------0----------------------------------------------------|
b -----7/9b-------0--------------------------------------------------|
g ------------------1------------------------------------------------|
d --------------------2----------------------------------------------|
a ----------------------2--------------------------------------------|
E -------------------------------------------------------------------|

Guitar 1.

e ---------------0---------------------------------------------------|
b -----------------0-------------------------------------------------|
g -------6-----------6-----------------------------------------------|
d -----7---------------7---------------------------------------------|
a ---7-------------------7-------------------------------------------|
E -5-----------------------------------------------------------------|

Guitar 2.

e ---------------0---------------------------------------------------|
b -----4/5---------0-------------------------------------------------|
g -------------------6-----------------------------------------------|
d ---------------------7---------------------------------------------|
a -----------------------7-------------------------------------------|
E -------------------------------------------------------------------|

Guitar 1.

e ----------------0-------------------------------------------------|
b ---------0--------0-----------------------------------------------|
g -------8------------8---------------------------------------------|
d -----9----------------9-------------------------------------------|
a ---9--------------------9-----------------------------------------|
E -7----------------------------------------------------------------|

Guitar 2.

e ----------------0-------------------------------------------------|
b ---5/7------------0-----------------------------------------------|
g --------------------8---------------------------------------------|
d ----------------------9-------------------------------------------|
a ------------------------9-----------------------------------------|
E ------------------------------------------------------------------|

Outro
e -----------------------------------------------------------------|
b -----------------------------------------------------------------|
g -----------------------------------------------------------------| X4
d -----------------------------------------------------------------|
a --10-10--9-9--5-5--5-5--5-5--------------------------------------|
E -----------------------------------------------------------------|

I think this is the whole song..enjoy!
Tap to rate this tab
# A B C D E F G H I J K L M N O P Q R S T U V W X Y Z