Guitaretab - guitar tabs
Song name
# A B C D E F G H I J K L M N O P Q R S T U V W X Y Z

Kings Of Leon - My Party tab

Intro
e-------------------------------------------------------|
B-------------------------------------------------------|
G-------------------------------------------------------|
D-------------------------------------------------------|
A-------------------------------------------------------|
E--9-9-99-0-99-x-999-0--9-9-99-0-99-0-999-0-------------|

Then
e-------------------------------------------------------|
B-------------------------------------------------------|
G-------------------------------------------------------|
D-------------------------------------------------------|
A-------------------------------------------------------|
E--9-9-99-0--9-9-99-0--9-9-99-0--9-9-99-0---------------|

Verse (no guitar)

Pre chorus
e-9--9--9--9--9--9--9--9--------------------------------|
B-9--9-9-9--9--9--9--9--------------------------------|
G-10-10-10-10-10-10-10-10-------------------------------|
D-11-11-11-11-11-11-11-11-------------------------------|
A-11-11-11-11-11-11-11-11-------------------------------|
E-9--9--9--9--9--9--9--9--------------------------------|
	Upstrokes

Chorus
e------------------------------------------------------------|
B------------------------------------------------------------|
G------------------------------------------------------------|
D-11--11-11-11-11-11-7--7-7-7-7-7-4--4-4-4-4-4-4--4-4-4-4-4--|
A-11--11-11-11-11-11-7--7-7-7-7-7-4--4-4-4-4-4-4--4-4-4-4-4--|
E-9---9--9--9--9--0--5--5-5-5-5-0-2--2-2-2-2-0-2--2-2-2-2-0--|
	Palm mute
[ Tab from: http://www.guitaretab.com/k/kings-of-leon/87980.html ]
Second Verse Effects
e-------------------------------------------------------|
B--222-000-222-----222-000------------------------------|
G-------------------------------------------------------|
D-------------------------------------------------------|
A-------------------------------------------------------|
E---------------------------9b--------------------------|

e-------------------------------------------------------|
B--222-000-222-555-121212-777-555-----------------------|
G-------------------------------------------------------|
D-------------------------------------------------------|
A-------------------------------------------------------|
E-------------------------------------------------------|

Pre chorus
Chorus

Solo
e-------------------------------------------------------|
B-------------------------------------------------------|
G-------------------------------------------------------|
D-------------------------------------------------------|
A-------------------------11b---------------------------|
E--9-11-9-2b-------9-11-9-------------------------------|

e-------------------------------------------------------|
B-------------------------------------------------------|
G-------------------------------------------------------|
D------------------------------------------11-----------|
A--12-11-9-7h9---------12-11-9-12-11-9-7h9--------------|
E--------------9----------------------------------------|

Breakdown
e-----------------------------------------------------------|
B-----------------------------------------------------------|
G-----------------------------------------------------------|
D-----------------------------------------------------------|
A-----------------------------------------------------------|
E--99-99-99-9990-55-55-55-5550-22-22-22-2220-22-22-22-2220--|
	Palm Mute

Outro
e-9--9--12-12-9---9--9--12-12-9--------------------------|
B-9--9-12-12-9---9--9--12-12-9--------------------------|
G-10-10-13-13-10--10-10-13-13-10-------------------------|
D-11-11-14-14-11--11-11-14-14-11-------------------------|
A-11-11-14-14-11--11-11-14-14-11-------------------------|
E-9--9--12-12-9---9--9--12-12-9--------------------------|


Related for My Party tab