Song name
# A B C D E F G H I J K L M N O P Q R S T U V W X Y Z

Kings Of Leon - Ragoo tab

Lead (Matthew)

Intro (Palm Muted)

e--------------------------------------------------|
B--------------------------------------------------|
G------11------11------11------11------11----------| 
D--0-12----0-12----0-12----0-12----0-12------------|
A--------------------------------------------------|
E--------------------------------------------------|

e-------------------------------------------|
B-------------------------------------------|       x4
G------7------7------7/6------6/4-----------| 
D--0-9----0-9----0-9-----0-0-------0--------|
A-------------------------------------------|
E-------------------------------------------|

Verse 1 - Nothing Played

Bridge - Repeat Intro Twice

Verse 2

e------------------------|--------------------------|
B------------------------|--------------------------|
G--11--X-11--X-11b12-----|--11--X-11--X-11--11b12---|
D--12--X-12--X-----------|--12--X-12--X-12----------|    x4
A------------------------|--------------------------|
E------------------------|--------------------------|

Chorus

e----------------|----------------|
B----------------|----------------|
G------------11--|------------14--| 
D--9--11--12-----|--9--11--12-----|    x3
A----------------|----------------|
E----------------|----------------|

Bridge - Repeat Intro Twice

Verse 3

e------------------------|--------------------------|
B------------------------|--------------------------|
G--11--X-11--X-11b12-----|--11--X-11--X-11--11b12---|
D--12--X-12--X-----------|--12--X-12--X-12----------|    x4
A------------------------|--------------------------|
E------------------------|--------------------------|

Chorus

e----------------|----------------|
B----------------|----------------|
G------------11--|------------14--| 
D--9--11--12-----|--9--11--12-----|    x3
A----------------|----------------|
E----------------|----------------|

Solo

e--14-----14-----14-----14-----14-----14-----14-----14----------|
B----15-----15-----15-----15-----15-----15-----15-----15--------|
G------14-----14-----14-----14-----14-----14-----14-----14------|
D---------------------------------------------------------------|
A---------------------------------------------------------------|
E---------------------------------------------------------------|

e--14-----------------12b----------|
B--15---15-15--15-15--15b---15-----|
G-------14-14--14-14--------14-----|
D----------------------------------|
A----------------------------------|
E----------------------------------|

e--14------------------------------|
B--15---15-15--15-15----12---------|
G-------14-14--14-14--------14-----|
D----------------------------------|
A----------------------------------|
E----------------------------------|

e--10------------------------------|
B--10---10-10--10-10--10-----------|
G-------11-11--11-11--11b12r11-----|
D----------------------------------|
A----------------------------------|
E----------------------------------|

e--10----------------------------------------|
B--10---10-10--10-10-------------------------|
G-------11-11--11-11--12p11-9h11p9-7h9p7-----|
D--------------------------------------------|
A--------------------------------------------|
E--------------------------------------------|

Outro

e--14-----14-----14-----14-----14-----14-----14-----14--------------|
B----15-----15-----15-----15-----15-----15-----15-----15------------|
G------14-----14-----14-----14-----14-----14-----14-----14----------|
D-------------------------------------------------------------------|
A-------------------------------------------------------------------|
E-------------------------------------------------------------------|

Rhythm (Caleb)

Intro/Verses/Solo etc

e--3/10--10--10--10--10--10--|
B--3/10--10--10--10--10--10--|
G--4/11--11--11--11--11--11--|
D--5/12--12--12--12--12--12--|
A--5/12--12--12--12--12--12--|
E--3/10--10--10--10--10--10--|

Chorus

e--------------|         
B--------------|
G--------------|
D--9-----5--7--|
A--9-----5--7--|
E--7-----3--5--|


please rate/comment

thanks
Tap to rate this tab
# A B C D E F G H I J K L M N O P Q R S T U V W X Y Z