Guitaretab - guitar tabs
Song name
# A B C D E F G H I J K L M N O P Q R S T U V W X Y Z

Kings Of Leon - Camaro tab

                        Camaro by Kings Of Leon
                    From The Album Because Of The Times

Tabbed by Adam Skirving aka Skirvy http://profile.ultimate-guitar.com/Skirvy/

Email: adam.s09@hotmail.com

The song is pretty easy, i managed to tab the whole thing from one listen. 


Tuning = Standard Tuning



Bass Intro


Guitar 1 0:19-0:41
|-------------------|
|-------------------|
|-------------------|  X12
|-------------------|
|-------------------|
|-5-5-5-5-5-5-5-5-5-|

Guitar 2  0:28-0:41
|-------------------------|
|---2v~---2v~---2v~---2v~-|
|2v~---2v~---2v~---2v~----|   X2
|-------------------------|
|-------------------------|
|-------------------------|


Verse


Guitar 1 + 2 0:41-0:55
|-----------------------------|
|-----------------------------|
|-----------------------------|   X1
|-----7~-----7~-----7~-----7~-|
|-----7~-----7~-----7~-----7~-|
|-----5~-----5~-----5~-----5~-|


Riff


Guitar 1 0:55-1:10                X3                                     X1
|15b17r15-12------------------------15b17r15-12---------------------------|
|-----------12v~---15b17r15-14-----------------12v~--15b7r15-14-14b15r14--|
|---------------12-------------14-12---------------12-------------------12|
|-------------------------------------------------------------------------|
|-------------------------------------------------------------------------|
|-------------------------------------------------------------------------|


Guitar 2 0:55-1:10
|-------------------------|
|---2v~---2v~---2v~---2v~-|
|2v~---2v~---2v~---2v~----|   X2
|-------------------------|
|-------------------------|
|-------------------------|


Verse


Guitar 1 + 2 1:10-1:23
|-----------------------------|
|-----------------------------|
|-----------------------------|   X1
|-----7~-----7~-----7~-----7~-|
|-----7~-----7~-----7~-----7~-|
|-----5~-----5~-----5~-----5~-|


Riff


Guitar 1 1:23-1:36                X3                                     X1
|15b17r15-12------------------------15b17r15-12---------------------------|
|-----------12v~---15b17r15-14-----------------12v~--15b7r15-14-14b15r14--|
|---------------12-------------14-12---------------12-------------------12|
|-------------------------------------------------------------------------|
|-------------------------------------------------------------------------|
|-------------------------------------------------------------------------|

Guitar 2 1:23-1:36
|-------------------------|
|---2v~---2v~---2v~---2v~-|
|2v~---2v~---2v~---2v~----|   X2
|-------------------------|
|-------------------------|
|-------------------------|


Solo 


Guitar 1 1:37-1:51
|-------------------------------------------------------
|-------------------------------------------------------
|-14p12-14--14p12-14--14p12-14--14p12-14--14p12-14p12---
|-------------------------------------------------------
|-------------------------------------------------------
|-------------------------------------------------------

|-------------------------------------------------------
|-----------------------------------------15b17r15-14---
|-14p12-14--14p12-14--14p12-14--14p12-14-------------14-
|-------------------------------------------------------
|-------------------------------------------------------
|-------------------------------------------------------

|-------------------------------------------------------
|-------------------------------------------------------
|-14p12-14--14p12-14--14p12-14--14p12-14--14p12-14p12---
|-------------------------------------------------------
|-------------------------------------------------------
|-------------------------------------------------------
[ Tab from: http://www.guitaretab.com/k/kings-of-leon/89745.html ]
|-------------------------------------------------------
|-----------------------------------------15b17r15-14---
|-14p12-14--14p12-14--14p12-14--14p12-14-------------14-
|-------------------------------------------------------
|-------------------------------------------------------
|-------------------------------------------------------

|-------------------------------------------------------
|-15p13-15--15p13-15--15p13-15--15p13-15--15p13-15p13---
|-------------------------------------------------------
|-------------------------------------------------------
|-------------------------------------------------------
|-------------------------------------------------------

|-----------------------------------------15b17-15------
|-15p13-15--15p13-15--15p13-15--15p13-15-----------14---
|-------------------------------------------------------
|-------------------------------------------------------
|-------------------------------------------------------
|-------------------------------------------------------

|-------------------------------------------------------
|-------------------------------------------------------
|-14p12-14--14p12-14--14p12-14--14p12-14--14p12-14p12---
|-------------------------------------------------------
|-------------------------------------------------------
|-------------------------------------------------------

|------------------------------------------------------------
|-----------------------------------------15b17r15-14-14b17--
|-14p12-14--14p12-14--14p12-14--14p12-14---------------------
|------------------------------------------------------------
|------------------------------------------------------------
|------------------------------------------------------------


Guitar 2 1:37-1:51
|-----------------------------|
|-----------------------------|
|-----------------------------|   X1
|-----7~-----7~-----7~-----7~-|
|-----7~-----7~-----7~-----7~-|
|-----5~-----5~-----5~-----5~-|


Bass Interlude 1:52-2:33


Riff


Guitar 1 2:33-2:43                                                  
|15b17r15-12------------------------15b17r15-12---------------------------|
|-----------12v~---15b17r15-14-----------------12v~--15b7r15-14-14b15r14--|
|---------------12-------------14-12---------------12-------------------12|
|-------------------------------------------------------------------------|
|-------------------------------------------------------------------------|
|-------------------------------------------------------------------------|


Verse


Guitar 1 + 2 2:43-2:56
|-----------------------------|
|-----------------------------|
|-----------------------------|   X1
|-----7~-----7~-----7~-----7~-|
|-----7~-----7~-----7~-----7~-|
|-----5~-----5~-----5~-----5~-|


Outro 2:56-3:07(End)


|-----------------------------|
|-----------------------------|
|-----------------------------|   X1    END.
|-----5~-----5~----7-7--------|
|-----5~-----5~----7-7--------|
|-----3~-----3~----5-5--------|



Lyrics

She look so cool in her new Camaro
It's black as coal and it goes boy, go go go
I brought my fight next to her Camaro
And when I fire on a smile then she blows, she blows

I'm makin eyes through my sharp sunglasses
She's such a brat now I'm packin her cigarettes
I guess I'll take off these great sunglasses
It makes her look me in the eye before she's taken away

So cool in her new Camaro
It's black as coal and it goes boy, go go go
She looks so cool in that new Camaro
So black as coal and it goes, no it go go go

She look so cool in her new Camaro
It's black as coal and it goes boy, go go go
I brought my fight next to her Camaro
And when I fire on a smile then she blows, she blows
She blows, she blows

| /  slide up
| \  slide down
| h  hammer-on
| p  pull-off
| ~  vibrato
| +  harmonic
| x  Mute note
============================================================================
Related for Camaro tab