Song name
# A B C D E F G H I J K L M N O P Q R S T U V W X Y Z

Kings Of Leon - Mollys Chambers Live tab

Molly's Chambers Live at Soho

intro

e------2----0-2-0-2-0-2--------------|
a------4--------------4--------------|
d------4--------------4--------------|             x8
g------3--------------3--------------|
b------2--------------2--------------|
E------2--------------2--------------|

verse 1

e-2-0-2-0-2-0-2-0-2-0-2-0-2                          e--2--------------|
a-4----------- 4-----------4                           a--4------------|
d--------------------------               x16       d--4---------------|              x5
g--------------------------                            g--3------------|
b--------------------------                            b--2------------|
E--------------------------                            E --2-----------|

chorus

e-7-7-7-7-7-7-7-7----5-5-5-5-5-5-5-5----2-0-2-0-2-0-2-----------|
a-9-9-9-9-9-9-9-9----7-7-7-7-7-7-7-7----4----------- 4----------|
d-9-9-9-9-9-9-9-9----7-7-7-7-7-7-7-7----4----------- 4----------|
g-8-8-8-8-8-8-8-8----6-6-6-6-6-6-6-6----3----------- 3----------|         x2
b-7-7-7-7-7-7-7-7----5-5-5-5-5-5-5-5----2----------- 2----------|
E-7-7-7-7-7-7-7-7----5-5-5-5-5-5-5-5----2----------- 2----------|

verse 2 -- same as verse 1 but after 2-0-2-0-2-0-2 is:

e------------------------------------------|
a------------------------------------------|
d------------------------------------------|
g------------------------------------------|
b-7-5-7-5-7-5-7-5-7-5-7-5------------------|                 x4
E------------------------------------------|

Chorus in back is verse 2 riff

e-7-7-7-7-7-7-7-7----5-5-5-5-5-5-5-5----2-0-2-0-2-0-2-2-------|
a-9-9-9-9-9-9-9-9----7-7-7-7-7-7-7-7----4----------- 4-4------|
d-9-9-9-9-9-9-9-9----7-7-7-7-7-7-7-7----4----------- 4-4------|
g-8-8-8-8-8-8-8-8----6-6-6-6-6-6-6-6----3----------- 3-3------|     x2
b-7-7-7-7-7-7-7-7----5-5-5-5-5-5-5-5----2----------- 2-2------|
E-7-7-7-7-7-7-7-7----5-5-5-5-5-5-5-5----2----------- 2-2------|

in background of chorus
e------------------------------------------|
a------------------------------------------|
d------------------------------------------|
g------------------------------------------|
b-7-5-7-5-7-5-7-5-7-5-7-5------------------|                 x4
E------------------------------------------|

SOLO

e-12b14-12b14-12b14-12b14--12b14p12-9-----------------------12------12-------|
b--------------------------------------12b14p12-10-10-10-12-13b14-14---------|
g----------------------------------------------------------------------------|
d----------------------------------------------------------------------------|
a----------------------------------------------------------------------------|
E----------------------------------------------------------------------------|

e-12----------12-------------------------------------------------------------|
b-13b14p13----13b14-4/----------4/----------4/-4/-2---2-4-4/-4/-4-4-4-4--4---|
g----------14-------4/-\2---2-4-4/-\2---2-4-4/-4/---4-----4/-4/-4-4-4-4--4---|
d-------------------------4-----------4--------------------------------------|
a----------------------------------------------------------------------------|
E----------------------------------------------------------------------------|

e--7----5-|
a--9----7-|
d--9----7-|
g--8----6-|
b--7----5-|
E--7----5-|


--2-0-2-0-2-0-2-0-2-0-2-0-2--|
--4----------- 4-----------4-|
--4----------- 4-----------4-|
--3----------- 3-----------3-|
--2----------- 2-----------2-|
--2----------- 2-----------2-|

Chorus for the rest of the song

e-7-7-7-7-7-7-7-7----5-5-5-5-5-5-5-5----2-0-2-0-2-0-2-2-------|
a-9-9-9-9-9-9-9-9----7-7-7-7-7-7-7-7----4----------- 4-4------|
d-9-9-9-9-9-9-9-9----7-7-7-7-7-7-7-7----4----------- 4-4------|
g-8-8-8-8-8-8-8-8----6-6-6-6-6-6-6-6----3----------- 3-3------|     x4
b-7-7-7-7-7-7-7-7----5-5-5-5-5-5-5-5----2----------- 2-2------|
E-7-7-7-7-7-7-7-7----5-5-5-5-5-5-5-5----2----------- 2-2------|

in background of chorus
e------------------------------------------|
a------------------------------------------|
d------------------------------------------|
g------------------------------------------|
b-7-5-7-5-7-5-7-5-7-5-7-5------------------|                 x4
E------------------------------------------|

OUTRO

e-7-7-7-7-7-7-7-7--5-5-5-5-5-5-5----5--|
a-9-9-9-9-9-9-9-9--7-7-7-7-7-7-7----7--|
d-9-9-9-9-9-9-9-9--7-7-7-7-7-7-7----7--|
g-8-8-8-8-8-8-8-8--6-6-6-6-6-6-6----6--|
b-7-7-7-7-7-7-7-7--5-5-5-5-5-5-5----5--|
E-7-7-7-7-7-7-7-7-- 5-5-5-5-5-5-5--- 5-|

This is my first tab so cut me some slack if it's not so good.
email me at:
sk8guyj@aol.com
if you would like me to correct any mistakes.
Thanks =]
Tap to rate this tab
 
# A B C D E F G H I J K L M N O P Q R S T U V W X Y Z