Song name
# A B C D E F G H I J K L M N O P Q R S T U V W X Y Z

Kings X - Stay tab

-------------------------------------------------------------------------------
			     STAY - King's X
-------------------------------------------------------------------------------
Tabbed by: Zadzior

Tuning: Drop D half step down (C#,G#,C#,F#,A#,D#)

Intro:


D#|---------------------------------------|---------------------------------------|
A#|---------------------------------------|---------------------------------------|
F#|---------------------------------------|---------------------------------------|
C#|--------------------------0----------2-|-------4------------------0------------|
G#|--4--4----6----1----0--0-----2----2----|--4--4----6----1----0--0-----2--0------|
C#|--4----0--6----1----0--------2---------|--4-------6----1----0--------2--0------|

Verse Riff: 6x

D#|---------------------------------------|
A#|------------------------------------2--|
F#|-(6)-----------------------------------|
C#|-(6)-3-4-------3-4------6-4-------3----|
G#|--4-------2----------4-------2---------|
C#|---------------------------------------|

Chorus:
  
D#|---------------------------------------|---------------------------------------|
A#|---------------------------------------|---------------------------------------|
F#|---------------------------------------|---------------------------------------|
C#|--------------------------0----------2-|-------4------------------0------------|
G#|--4--4----6----1----0--0-----2----2----|--4--4----6----1----0--0-----2--0------|
C#|--4----0--6----1----0--------2---------|--4-------6----1----0--------2--0------|

D#|---------------------------------------|---------------------------------------|
A#|---------------------------------------|---------------------------------------|
F#|---------------------------------------|---------------------------------------|
C#|--------------------------0----------2-|-------4------------------0------------|
G#|--4--4----6----1----0--0-----2----2----|--4--4----6----1----0--0-----2--0------|
C#|--4----0--6----1----0--------2---------|--4-------6----1----0--------2--0------|

Post Chorus

D#|-------------|
A#|-------------|
F#|-------------|
C#|-----3-4-----|
G#|--4-------2--|
C#|-------------|

Verse: 4x

D#|---------------------------------------|
A#|------------------------------------2--|
F#|-(6)-----------------------------------|
C#|-(6)-3-4-------3-4------6-4-------3----|
G#|--4-------2----------4-------2---------|
C#|---------------------------------------|

Chorus:

D#|---------------------------------------|---------------------------------------|
A#|---------------------------------------|---------------------------------------|
F#|---------------------------------------|---------------------------------------|
C#|--------------------------0----------2-|-------4------------------0------------|
G#|--4--4----6----1----0--0-----2----2----|--4--4----6----1----0--0-----2--0------|
C#|--4----0--6----1----0--------2---------|--4-------6----1----0--------2--0------|

D#|---------------------------------------|---------------------------------------|
A#|---------------------------------------|---------------------------------------|
F#|---------------------------------------|---------------------------------------|
C#|--------------------------0----------2-|-------4------------------0------------|
G#|--4--4----6----1----0--0-----2----2----|--4--4----6----1----0--0-----2--0------|
C#|--4----0--6----1----0--------2---------|--4-------6----1----0--------2--0------|

Bridge: 2x 

D#|------------------------------------------------------------------|
A#|------------------------------------------------------------------|
F#|------------------------------------------------------------------|
C#|--6-6-6-6-6-6-6-6-6/7-7-7-7-7-7-7-4-4-4-4-4-4-4-4-2-2-2-2-2-2-2-2-|
G#|--6-6-6-6-6-6-6-6-6/7-7-7-7-7-7-7-4-4-4-4-4-4-4-4-2-2-2-2-2-2-2-2-|
C#|--6-6-6-6-6-6-6-6-6/7-7-7-7-7-7-7-4-4-4-4-4-4-4-4-2-2-2-2-2-2-2-2-|

Solo rhytm Riff: 2x

D#|---------------------------------------|---------------------------------------|
A#|---------------------------------------|---------------------------------------|
F#|---------------------------------------|---------------------------------------|
C#|---------------------------------------|---------------------------------------|
G#|--4-------6----1----0--------2---------|--4-------6----1----0--------2--0------|
C#|--4-------6----1----0--------2---------|--4-------6----1----0--------2--0------|

Solo:
(Listen to the song to get the timing)

D#|----------------------------------------------------------------------|
A#|------------------------------------------------12b14~h10-12-10-9-11--|
F#|-----------13-13b14-----13b14-------11-13b14-11-----------------------|
C#|--12/13-16----------16--------12-11-----------------------------------|
G#|----------------------------------------------------------------------|
C#|----------------------------------------------------------------------|

D#|---------------------------------------------------------------------------------|
A#|--------14-13-14-13b14~12-10-12-10-------------14-11-9----13b14-12-10-12-10-13-11|
F#|--14/15----------------------------13-11-13b15---------11------------------------|
C#|---------------------------------------------------------------------------------|
G#|---------------------------------------------------------------------------------|
C#|---------------------------------------------------------------------------------|

Chorus: 4x
  
D#|---------------------------------------|---------------------------------------|
A#|---------------------------------------|---------------------------------------|
F#|---------------------------------------|---------------------------------------|
C#|--------------------------0----------2-|-------4------------------0------------|
G#|--4--4----6----1----0--0-----2----2----|--4--4----6----1----0--0-----2--0------|
C#|--4----0--6----1----0--------2---------|--4-------6----1----0--------2--0------|

Outro

D#|------------------|----------------|
A#|--------14-13-14--|----------------|
F#|--14/15-----------|----------------|
C#|------------------|-----3-4-----3--|
G#|------------------|--4-------2-----|
C#|------------------|----------------|

Thats it... Im not 100% sure about the bridge.. but sounds fine to me. --E
Tap to rate this tab
 
# A B C D E F G H I J K L M N O P Q R S T U V W X Y Z