Guitaretab - guitar tabs
Song name
# A B C D E F G H I J K L M N O P Q R S T U V W X Y Z

Kings X - Groove Machine tab

-----------------------------------------------------------------------------
			     Groove Machine - Kings X
-----------------------------------------------------------------------------
Tabbed by: Tim Fowler
Email: timf@cksd.wednet.edu

Tuning: Drop D with the whole guitar down a half step
[ Tab from: http://www.guitaretab.com/k/kings-x/250845.html ]
G#|------------------------2-2-----------------------------------------------|
A#|------------------------2-2-----------------------------------------------|
F#|------------------------2-2-----------------------------------------------|
C#|--4---------2-4---------4-4---------2-4-----------------------------------|
G#|--2-0-2-3-4-0-2-0-2-3-4-----0-2-3-4-0-2-0-2-2-0---------------------------|
C#|----0-2-3-4-----0-2-3-4-----0-2-3-4-----0-2-2-0---------------------------|

G#|--2---------------------2-2---------------------0-------------------------|
A#|--2---------------------2-2---------------------0-------------------------|
F#|--2---------------------2-2---------------------2-------------------------|
C#|--4---------2-4---------4-4---------2-4---------x-------------------------|
G#|----0-2-3-4-0-2-0-2-3-4-----0-2-3-4-0-2-0-2-2-0-2-------------------------|
C#|----0-2-3-4-----0-2-3-4-----0-2-3-4-----0-2-2-0---------------------------|

This is the whole intro and repeats itself to take care of pretty much the whole song.  
the phrase up a whole step for the solo.
Related for Groove Machine tab
×
Best way to learn
"Groove Machine"