Song name
# A B C D E F G H I J K L M N O P Q R S T U V W X Y Z

Kings X - Bitter Sweet tab

Bitter Sweet by Kings X

Tabbed by SuperBeef (SuperBeefTabs@gmail.com)

This tab is my interpretation of others work, and is not for commercial use.  

Standard Tuning EADGBE

Verse

e-|--------------------------------------|
B-|---0-2---------0------------------2---|
G-|-2-----2---0-2---2-----2---2----2---2-|
D-|---------------------4----------------|
A-|-------------------------0------------|
E-|------------------------------3-------|

Repeat


Chorus


e-|-----------------------------------------------------|
B-|-----0--------0------------------------------------3-|
G-|-0-2---2--0-2---2-------2-1-2-4------2---2-1-----2-3-|
D-|----------------------4----------4-----4------4----3-|
A-|---------------------------------------------------1-|
E-|-----------------------------------------------------|

e-|--------------------------------------------------------|
B-|-----0--------0-------------------------------------3---|
G-|-0-2---2--0-2---2-------2-1-2-4------2-----2-1----2---2-|
D-|----------------------4----------4-----(4)-----4--------|
A-|--------------------------------------------------------|
E-|--------------------------------------------------------|


e-|------------------|
B-|-----0--------0---|
G-|-0-2---2--0-2---2-|
D-|------------------|
A-|------------------|
E-|------------------|

Outro Solo

e-|-/12-10-9-10--5-10-9-7-5----|
B-|----------------------------|
G-|----------------------------|
D-|----------------------------|
A-|----------------------------|
E-|----------------------------|


************************************

| /   slide up
| \   slide down
| h   hammer-on
| p   pull-off
| ~   vibrato
| +   harmonic
| x   Mute note
| b   Bend
| pb  Pre-bend
| br  Bend release
| pbr Pre-bend release
| brb Bend release bend

************************************
Tap to rate this tab
# A B C D E F G H I J K L M N O P Q R S T U V W X Y Z