Song name
# A B C D E F G H I J K L M N O P Q R S T U V W X Y Z

Kings X - Complain tab

I spent an afternoon figuring this out. It gets really difficult to understand, I know, 
especially at the part towards the end where the guitars are double-tracked and 
harmonized, but I tabbed it best I could, so perhaps some like-minded people will 
be able to readz it.

Oh, and I know Ty Tabor tunes his guitar down a half-step, but I'm lazy and I just go to 
Drop D, so the solo itself is standard tuning. Sue me.

E|--6b7--4h6p4--3h4p3h6p3h4h6--|
B|-----------------------------|
G|-----------------------------|
D|-----------------------------|
A|-----------------------------|
E|-----------------------------|



E|--13b14----------13---------------------------------------------|
B|---------14--12------14--12------14--12-------------------------|
G|-----------------------------13----------13--11--9------11------|
D|----------------------------------------------------11------11--|
A|----------------------------------------------------------------|
E|----------------------------------------------------------------|



E|-14b16b14-12-9-7-9-12-9-7-9-12-9-7-9-12-9v---|
B|---------------------------------------------|
G|---------------------------------------------|
D|---------------------------------------------|
A|---------------------------------------------|
E|---------------------------------------------|



E|-11b12-11b12b11-9-16b19-14-16----------------------|
B|------------------------------16b17b16-14-16-17-14-|
G|---------------------------------------------------|
D|---------------------------------------------------|
A|---------------------------------------------------|
E|---------------------------------------------------|

Hello, harmonized guitars. I CAN'T UNDERSTAND YOU!!

E|--------------------------------------------------------|
B|---------------9-9-12-9-11---------9----9-11b12b11------|
G|-11b13b11p9-11-------------11-9-11---11------------9-11-|
D|--------------------------------------------------------|
A|--------------------------------------------------------|
E|--------------------------------------------------------|



E|-------------------------------------------------|
B|--------------------9------9-11-11b12b11-9-12b14-|
G|-9-11-11b12b11-9-11---9-11-----------------------|
D|-------------------------------------------------|
A|-------------------------------------------------|
E|-------------------------------------------------|
Tap to rate this tab
# A B C D E F G H I J K L M N O P Q R S T U V W X Y Z