Song name
# A B C D E F G H I J K L M N O P Q R S T U V W X Y Z

Kings X - A Box tab

King's X - A Box
from the album Ear Candy

Tuning - Standard
d - downstroke
u - upstroke


Intro~ x2
|------------------------------------------------------------------|
|------------------------------------------------------------------|
|-----0-----0-----0-----0-----0--------0-----0-----0-----0-----0---|
|---0-----0-----0-----0-----0--------0-----0-----0-----0-----0-----|
|-7-----5-----------------3--------7-----5-------------------------|
|-------------3-----5--------------------------3-----5-----3-------|

Verse~
             
|-1~------------1~----------------0-----------------------------|
|-0~------------0~----------------0-0---3-----------------------|
|-0~------------0~------------------0-----0-------0---------0---|
|-0~------------0~------------------2-------0-------0-----0-----|
|-2~------------2~--------------2---3-----------3-------5-------|
|-3~----3/5\3---3~----3/5\3---0--------------------------------3|

-PLAY INTRO x2

Run In to Chorus~

|--------------------------------|
|--------------------------------|
|-----0-----0---------0--------0-|
|---0-----0---------0--------0---|
|-7-----5------3---------3/5-----|
|--------------------------------|

Chorus
d   d   d u  d  d  d  d d d  d  d  d u  d  d  d  d d d
G         C  G  D  C  Em     C             D  Em D 
/   /   / /  /  /  /  / / /  /  /  / /  /  /  /  / / /

Solo~ 

Havent tabbed yet, will get to it soon.

Outro~

-Mainly the intro riff, but theres a small change to it sometimes-

|-------------------------------------------------------------------------|
|-------------------------------------------------------------------------|
|-----0-----0-----0-----0-----0--------0-----0-----0-----0----------------|
|---0-----0-----0-----0-----0--------0-----0-----0-----0-----0------------|
|-7-----5-----------------3--------7-----5-----------------------12--10---|
|-------------3-----5--------------------------3-----5-----3--------------|

I will have the solo up shortly.
This is my first tab. Comments and corrections email at brygee91010@yahoo.com.
Thanks.
End Tab~
Tap to rate this tab
# A B C D E F G H I J K L M N O P Q R S T U V W X Y Z