Song name
# A B C D E F G H I J K L M N O P Q R S T U V W X Y Z

Kings X - Over My Head tab

-------------------------------------------------------------------------------
			     OVER MY HEAD - King's X
-------------------------------------------------------------------------------
Tabbed by: Isaias Garcia (TexasFury)

Tuning: Standard

Album: Gretchen Goes To Nebraska


Guitar - left

     Q    E  E  E  E  E   E     Q    Q    H           Q    E  E  Q      E  E   
E||--------------------------|---------------------|--------------------------|
B||--------------------------|---------------------|--------------------------|
G||--7----L--9--L------------|--5----7----9--------|--7----L--9--L------------|
D||--7----L--9--L------------|--5----7----9--------|--7----L--9--L------------|
A||--5----L--7--L------------|--3----5----7--------|--5----L--7--L----5g7--5--|
E||----------------0--3p--0--|---------------------|--------------------------|


  E  E  E  E  H            Q    E  E  E  E  E   E     Q    Q    H         
------------------------|--------------------------|---------------------|
------------------------|--------------------------|---------------------|
--------------3~--------|--7----L--9--L------------|--5----7----9--------|
--------------2~--------|--7----L--9--L------------|--5----7----9--------|
--4-----------3~--------|--5----L--7--L------------|--3----5----7--------|
-----5--3--0------------|----------------0--3p--0--|---------------------|


  Q    E  E  Q      E  E     E  E  E  E  H            Q    E  E  E  E  E   E   
--------------------------|------------------------|--------------------------|
--------------------------|--------------4~--------|--------------------------|
--7----L--9--L------------|--------------3~--------|--7----L--9--L------------|
--7----L--9--L------------|--------------2~--------|--7----L--9--L------------|
--5----L--7--L----5g7--5--|--4-----------3~--------|--5----L--7--L------------|
--------------------------|-----5--3--0------------|----------------0--3p--0--|


                 PM PM                                                      
  Q    Q    Q    E  E     Q    E  E  Q      E  E     E  E  E  E  H          
-----------------------|--------------------------|------------------------|
-----------------------|--------------------------|--------------4~--------|
--5----7----9----------|--7----L--9--L------------|--------------3~--------|
--5----7----9----------|--7----L--9--L------------|--------------2~--------|
--3----5----7----------|--5----L--7--L----5g7--5--|--4-----------3~--------|
-----------------0--0--|--------------------------|-----5--3--0------------|


                                            PM PM                             
  Q    E  E  E  E  E   E     Q    Q    Q    E  E     Q    E  E  Q      E  E   
--------------------------|-----------------------|--------------------------|
--------------------------|-----------------------|--------------------------|
--7----L--9--L------------|--5----7----9----------|--7----L--9--L------------|
--7----L--9--L------------|--5----7----9----------|--7----L--9--L------------|
--5----L--7--L------------|--3----5----7----------|--5----L--7--L----5g7--5--|
----------------0--3p--0--|-----------------0--0--|--------------------------|


  E  E  E  E  H            Q    Q    H           H        E  E  E  E     Q    Q    H          
------------------------|---------------------|-----------------------|----------------------|
--------------4~--------|--8------------------|-----------------------|--6----7----8~--------|
--------------3~--------|--7------------------|-----------x--x--x-----|--5----6----7~--------|
--------------2~--------|---------------------|-----------x--x--x-----|----------------------|
--4-----------3~--------|---------------------|-----------------------|--5----6----7~--------|
-----5--3--0------------|---------------------|--------------------0--|----------------------|


  H        E  E  Q       Q    Q    H           H        E  E  E  E     Q    Q    H          
----------------------|---------------------|-----------------------|----------------------|
-----------------9----|--8------------------|-----------------------|--6----7----8~--------|
-----------------8----|--7------------------|--------------x--x-----|--5----6----7~--------|
----------------------|---------------------|--------------x--x-----|----------------------|
-----------------8----|---------------------|-----------------------|--5----6----7~--------|
--------------0-------|---------------------|--------------------0--|----------------------|


  Q    Q    E  E  E   E     Q    E  E  E  E  E   E     Q    Q    H         
-------------------------|--------------------------|---------------------|
-------------------------|--------------------------|---------------------|
--x----x----x------------|--7----L--9--L------------|--5----7----9--------|
--x----x----x------------|--7----L--9--L------------|--5----7----9--------|
-------------------------|--5----L--7--L------------|--3----5----7--------|
---------------0--3p--0--|----------------0--3p--0--|---------------------|


  Q    E  E  Q      E  E     E  E  E  E  H            Q    E  E  E  E  E   E   
--------------------------|------------------------|--------------------------|
--------------------------|--------------4~--------|--------------------------|
--7----L--9--L------------|--------------3~--------|--7----L--9--L------------|
--7----L--9--L------------|--------------2~--------|--7----L--9--L------------|
--5----L--7--L----5g7--5--|--4-----------3~--------|--5----L--7--L------------|
--------------------------|-----5--3--0------------|----------------0--3p--0--|


                 PM PM                                                      
  Q    Q    Q    E  E     Q    E  E  Q      E  E     E  E  E  E  H          
-----------------------|--------------------------|------------------------|
-----------------------|--------------------------|--------------4~--------|
--5----7----9----------|--7----L--9--L------------|--------------3~--------|
--5----7----9----------|--7----L--9--L------------|--------------2~--------|
--3----5----7----------|--5----L--7--L----5g7--5--|--4-----------3~--------|
-----------------0--0--|--------------------------|-----5--3--0------------|


  Q    E  E  E  E  E   E     Q    Q    E    E  Q        Q    E  E  Q       E  E   
--------------------------|--------------------------|---------------------------|
--------------------------|--------------------------|---------------------------|
--7----L--9--L------------|--5----7----9--/12--9~----|--7----L--9--L~------------|
--7----L--9--L------------|--5----7----9-------------|--7----L--9--L~------------|
--5----L--7--L------------|--3----5----7-------------|--5----L--7--L~----5g7--5--|
----------------0--3p--0--|--------------------------|---------------------------|


                                                                   PM       
  E  E  E  E  H            Q    E  E  E  E  E   E     Q    Q    E  E  Q     
------------------------|--------------------------|-----------------------|
--------------4~--------|--------------------------|-----------------------|
--------------3~--------|--7----L--9--L------------|--5----7----9----------|
--------------2~--------|--7----L--9--L------------|--5----7----9----------|
--4-----------3~--------|--5----L--7--L------------|--3----5----7----------|
-----5--3--0------------|----------------0--3p--0--|---------------0--0----|


  Q    E  E  Q      E  E     E  E  E  E  H            Q    Q    H           H        E  E  E  E   
--------------------------|------------------------|---------------------|-----------------------|
--------------------------|--------------4~--------|--8------------------|-----------------------|
--7----L--9--L------------|--------------3~--------|--7------------------|-----------x--x--x-----|
--7----L--9--L------------|--------------2~--------|---------------------|-----------x--x--x-----|
--5----L--7--L----5g7--5--|--4-----------3~--------|---------------------|-----------------------|
--------------------------|-----5--3--0------------|---------------------|--------------------0--|


  Q    Q    H            H        E  E  Q        Q    Q    H           H        E  E  E  E   
----------------------|-----------------------|---------------------|-----------------------|
--6----7----8~--------|--------------9--9~----|--8------------------|-----------------------|
--5----6----7~--------|--------------8--8~----|--7------------------|-----------x--x--x-----|
----------------------|-----------------------|---------------------|-----------x--x--x-----|
--5----6----7~--------|-----------------------|---------------------|-----------------------|
----------------------|-----------0-----------|---------------------|--------------------0--|


                                                                      PM  PM  
  Q    Q    H            H        E  E   Q         Q.       E   Q     E   E   
----------------------|------------------------|-----------------------------|
--6----7----8~--------|------------------------|--15-------------------------|
--5----6----7~--------|-----------x------------|--14b------12---L------------|
----------------------|-----------x------------|-----------12---L----14--12--|
--5----6----7~--------|------------------------|-----------------------------|
----------------------|--------------0--12\----|-----------------------------|


   PM  PM                                          PM  PM                                  
   E   E   Q      H             Q.       E   Q     E   E      E    E   H          E   E    
----------------------------|-----------------------------|----------------------12-------|
----------------------------|--15-------------------------|--------------------------15b--|
--12------12b---------------|--14b------12---L------------|--14b--12----------------------|
------14---------14~--------|-----------12---L----14--12--|-----------14~-----------------|
----------------------------|-----------------------------|-------------------------------|
----------------------------|-----------------------------|-------------------------------|


   Q      E   E    Q     E   E       Q     E   E   E   E    E      S   S  
---------12-------------12-------|--------12-----------------------------|
---L~--------15b---L--------15b--|---L--------15--12--14b---Lpbr--14p-12-|
---------------------------------|---------------------------------------|
---------------------------------|---------------------------------------|
---------------------------------|---------------------------------------|
---------------------------------|---------------------------------------|


   S  S  S  S  S  S  S  S  S  S  S   S  E    S  S     E   E    E   E   H          
--------------------------------------------------|------------------------------|
--14-12----12-------------------------------------|------------------------------|
--------15----15-14-12----14----12h-14-12~--------|--12--12b---------------------|
-----------------------14----14-------------14-12-|--12-------14--12--14~--------|
--------------------------------------------------|------------------------------|
--------------------------------------------------|------------------------------|


                  PM PM                    PM PM                            
  Q    Q    Q     E  E     Q    Q    Q     E  E     Q    E  E  Q     E  E   
------------------------|------------------------|-------------------------|
--6----7----8~----------|--6----7----8~----------|--6----7-----8~-------8--|
--5----6----7~----------|--5----6----7~----------|--5----6-----7~-------7--|
------------------------|------------------------|-------------------------|
--5----6----------------|--5----6----------------|--5----6-----------------|
------------------0--0--|------------------0--0--|----------0--------------|


                   PM                                                                              
  Q    Q     E  E  E  E     Q    E  E  Q    Q       E  E  Q    Q    E  E     Q    Q    E  E  Q     
-------------------------|-----------------------|------------------------|-----------------------|
-------8~-------8--------|--8-------8-------8----|-----8-------8-------8--|-------8-------8-------|
-------7~-------7--------|--7-------7-------7----|-----7-------7-------7--|-------7-------7-------|
-------------------------|-----------------------|------------------------|-----------------------|
-------------------------|-----------------------|------------------------|-----------------------|
-------------------0--0--|-----------------------|------------------------|-----------------------|


  Q    E  E  Q    Q       E  E  Q    H           H            Q.        E    Q     E   E   
-----------------------|----------------------|-----------|--17br-------------------------|
--8-------8-------8----|-----8-------8--------|-----------|------------17~---L----15--17--|
--7-------7-------7----|-----7-------7--------|-----------|-------------------------------|
-----------------------|-----6-------6--------|-----------|-------------------------------|
-----------------------|-----7-------7--------|-----------|-------------------------------|
-----------------------|----------------------|-----------|-------------------------------|


   E   E    Q      Q      E   E      E   E    E   E   E   E    S  S   S   S  
--15--17b--15b---------------12--|------15b---L--15--12---------------------|
------------------17~----12------|--12-------------------15b---L-12h-15p-12-|
---------------------------------|------------------------------------------|
---------------------------------|------------------------------------------|
---------------------------------|------------------------------------------|
---------------------------------|------------------------------------------|


   S  S  S  S  S   S  S   S  H             Q        E   E    Q      E   E   
----------------------------15b--------|--15pbr----12--------------12------|
--12-----------------------------------|---------------15b---L~--------15--|
-----15-14-12-14p-12-------------------|-----------------------------------|
---------------------14p-12------------|-----------------------------------|
---------------------------------------|-----------------------------------|
---------------------------------------|-----------------------------------|


   E   E    E   E    Q      E   E      E   E      E   E   S   S  E      E   E   
-----------------------------------|-------------------------------------------|
--12-------15----------------------|-------------------------------------------|
------14b------14b--12~--------12--|-------------------------------------------|
---------------------------14------|--14--12---------12--------------------12--|
-----------------------------------|----------12g14------14s-12-10--12g14------|
-----------------------------------|-------------------------------------------|


      E   E    E   E   H              S     S  S  S  S  S    S  S  S  S  S    S  S  S   E   
----------------------17b~--------|--17pbr--L-15-------17br--L-15-------17br--L-15---------|
------------------15--------------|--------------17-15------------17-15------------17p-15--|
---------12--/16------------------|--------------------------------------------------------|
--12g14--12-----------------------|--------------------------------------------------------|
----------------------------------|--------------------------------------------------------|
----------------------------------|--------------------------------------------------------|


           |---3--|                                       
   S    S  S  S   S  S    S  S  S  S  S  S  S  E    S  S  
--17br--L-15--------17br--L-15----------15---------------|
-------------17p-15------------17-15-17----17--L~--15-17-|
---------------------------------------------------------|
---------------------------------------------------------|
---------------------------------------------------------|
---------------------------------------------------------|


   |---3---|  |---3---|   |---3---|  |---3--|               |---3---|  |---3---|  
   S   S   S  S   S   S   S   S   S  S   S  S  S  S  S   S  S   S   S  S   S   S  
----------------------------------------------------------------------12h-14h-15-|
--15p-14h-15--Lp-14p-12\-12p-11p-10-11p-10p-9--------------12h-14h-15------------|
----------------------------------------------12----12h-14-----------------------|
-------------------------------------------------14------------------------------|
---------------------------------------------------------------------------------|
---------------------------------------------------------------------------------|


   T       T              T       T                  T           T          
               |---3---|              |---3---|                             
   T   T   S   S   S   S  T   T   S   S   S   S  S   S   E   S   S   S   S  
--19p-15h-19p-15p-14p-12-19p-15h-19p-15p-14p-12-15h-17p-15---Lh-17p-15s-17-|
---------------------------------------------------------------------------|
---------------------------------------------------------------------------|
---------------------------------------------------------------------------|
---------------------------------------------------------------------------|
---------------------------------------------------------------------------|


      Q     Q     S   S   E   Q         S   S   S  S  S  S   S   S  S   S  E    Q      
--15g17----15----12h-15p-12---------|-------------------------------------------------|
-----------------------------15~----|--12h-15p-12----12-------------------------------|
------------------------------------|-------------15----15p-14p-12-14p-12-14b--12~----|
------------------------------------|-------------------------------------------------|
------------------------------------|-------------------------------------------------|
------------------------------------|-------------------------------------------------|


                dip trem down till end of triplet figure.                                         
                |-----------------------3----------------------|    |----3----|    |----3----|    
      E    E    E                                         E    E    E    E    E    E    E    E    
-------------------------------------------------------------------------------------------------|
-------------------------------------------------------------------------------------------------|
--12g16h--19p--16h---------------------------------------19p--16h--19p--16h--19p--16h--19p--16h--|
-------------------------------------------------------------------------------------------------|
-------------------------------------------------------------------------------------------------|
-------------------------------------------------------------------------------------------------|


                                  \4/                                               PM           
   S   S   S   S   S   S   S   S  Q     Q        Q    E  E  E  E  E   E     Q    E  E  H         
---------------------------------17-----------|--------------------------|----------------------|
----------------------------------------------|--------------------------|----------------------|
--19p-16h-19p-16h-19p-16h-19p-16--------------|--7----L--9--L------------|--5----7-----9--------|
----------------------------------------------|--7----L--9--L------------|--5----7-----9--------|
----------------------------------------------|--5----L--7--L------------|--3----5-----7--------|
---------------------------------------12\----|----------------0--3p--0--|----------0-----------|


  Q    E  E  Q      E  E     E  E  E  E  H            Q    E  E  E  E  E   E   
--------------------------|------------------------|--------------------------|
--------------------------|--------------4~--------|--------------------------|
--7----L--9--L------------|--------------3~--------|--7----L--9--L------------|
--7----L--9--L------------|--------------2~--------|--7----L--9--L------------|
--5----L--7--L----5g7--5--|--4-----------3~--------|--5----L--7--L------------|
--------------------------|-----5--3--0------------|----------------0--3p--0--|


          PM          W                                                         
  Q    E  E  E    E   Q       Q    E  E  Q      E  E     E  E  E  E  H          
---------------------------|--------------------------|------------------------|
---------------------------|--------------------------|--------------4~--------|
--5----7-----9--/16--12----|--7----L--9--L------------|--------------3~--------|
--5----7-----9-------------|--7----L--9--L------------|--------------2~--------|
--3----5-----7-------------|--5----L--7--L----5g7--5--|--4-----------3~--------|
----------0----------------|--------------------------|-----5--3--0------------|


  Q    Q    H           H        E  E  E  E     Q    Q    H            H        E  E  Q      
---------------------|-----------------------|----------------------|-----------------------|
--8------------------|-----------------------|--6----7----8~--------|--------------9--9~----|
--7------------------|-----------x--x--x-----|--5----6----7~--------|-----------x--8--8~----|
---------------------|-----------x--x--x-----|----------------------|-----------x-----------|
---------------------|-----------------------|--5----6----7~--------|-----------------------|
---------------------|--------------------0--|----------------------|-----------------------|


                                                                PM PM                   PM    PM  
  Q    Q    H           H        E  E  E  E     Q    Q    Q     E  E       Q    Q    E  E  E  E   
---------------------|-----------------------|------------------------|--------------------------|
--8------------------|-----------------------|--6----7----8~----------|--------------------------|
--7------------------|-----------x--x--x-----|--5----6----7~----------|--7g9----7----9-----7-----|
---------------------|-----------x--x--x-----|------------------------|--7g9----7----9-----7-----|
---------------------|-----------------------|--5----6----7~----------|--------------------------|
---------------------|--------------------0--|------------------0--0--|-----------------0-----0--|


  Q    Q    H           S  S  E  Q     Q    E   E     Q    Q    Q     E  E   
---------------------|-----------------0-----------|------------------------|
--8------------------|--3p-2p-0--2~----0-----------|--6----7----8~----------|
--7------------------|-----------------------------|--5----6----7~----x--x--|
---------------------|----------------------7s--5--|------------------x--x--|
---------------------|-----------------------------|--5----6----7~----------|
---------------------|-----------------------------|------------------------|


                                                     PM              PM              PM  
  E  E   E     E   Q     Q        Q     Q    Q    E  E      Q     E  E   E    E   E  E   
-------------------------------|------------------------|-------------------------------|
-------------------------------|--8~--------------------|-------------------------------|
--x--x--14br---L--12----14b----|--7~--------------------|--14----12-----12h--14--12-----|
--x--x--14br---L--12-----------|------------------------|--14----12-----12h--14--12-----|
-------------------------------|------------------------|-------------------------------|
-------------------------------|---------------------0--|------------0---------------0--|


   Q     E  E   Q     Q       E  E   E   E   Q      E   E     Q    Q    H         
---------------------------|-------------------------------|---------------------|
---------------------------|-------------------------------|---------------------|
--10----11-----12~---------|--------14--12--14~----12------|---------------------|
--10----11-----12~---------|--------14--12--14~----12------|---------------------|
---------------------------|---------------------------14--|---------------------|
------------0--------------|-----0-------------------------|--0------------------|


  W                   W                   W                   W                   W                 
-------------------|-------------------|-------------------|-------------------|-------------------|
-------------------|-------------------|-------------------|-------------------|-------------------|
-------------------|-------------------|-------------------|-------------------|-------------------|
-------------------|-------------------|-------------------|-------------------|-------------------|
-------------------|-------------------|-------------------|-------------------|-------------------|
-------------------|-------------------|-------------------|-------------------|-------------------|


  W                   W                   W                   W                   W                 
-------------------|-------------------|-------------------|-------------------|-------------------|
-------------------|-------------------|-------------------|-------------------|-------------------|
-------------------|-------------------|-------------------|-------------------|-------------------|
-------------------|-------------------|-------------------|-------------------|-------------------|
-------------------|-------------------|-------------------|-------------------|-------------------|
-------------------|-------------------|-------------------|-------------------|-------------------|


  W                   W                   W                   W                   W                 
-------------------|-------------------|-------------------|-------------------|-------------------|
-------------------|-------------------|-------------------|-------------------|-------------------|
-------------------|-------------------|-------------------|-------------------|-------------------|
-------------------|-------------------|-------------------|-------------------|-------------------|
-------------------|-------------------|-------------------|-------------------|-------------------|
-------------------|-------------------|-------------------|-------------------|-------------------|


  W                   W                   W                   W                   W                 
-------------------|-------------------|-------------------|-------------------|-------------------|
-------------------|-------------------|-------------------|-------------------|-------------------|
-------------------|-------------------|-------------------|-------------------|-------------------|
-------------------|-------------------|-------------------|-------------------|-------------------|
-------------------|-------------------|-------------------|-------------------|-------------------|
-------------------|-------------------|-------------------|-------------------|-------------------|


  W                   W                   W                   Q    E  E  E  E  E   E   
-------------------|-------------------|-------------------|--------------------------|
-------------------|-------------------|-------------------|--------------------------|
-------------------|-------------------|-------------------|--7----L--9--L------------|
-------------------|-------------------|-------------------|--7----L--9--L------------|
-------------------|-------------------|-------------------|--5----L--7--L------------|
-------------------|-------------------|-------------------|----------------0--3p--0--|


     PM    PM                                                               
  E  E  E  E  H           Q    E  E  Q      E  E     E  E  E  E  H          
-----------------------|--------------------------|------------------------|
-----------------------|--------------------------|--------------4~--------|
--5-----7-----9--------|--7----L--9--L------------|--------------3~--------|
--5-----7-----9--------|--7----L--9--L------------|--------------2~--------|
--3-----5-----7--------|--5----L--7--L----5g7--5--|--4-----------3~--------|
-----0-----0-----------|--------------------------|-----5--3--0------------|


                                PM    PM      PM PM                             
  Q    E  E  E  E  E   E     E  E  E  E  Q    E  E     Q    E  E  Q      E  E   
--------------------------|-------------------------|--------------------------|
--------------------------|-------------------------|--------------------------|
--7----L--9--L------------|--5-----7-----9----------|--7----L--9--L------------|
--7----L--9--L------------|--5-----7-----9----------|--7----L--9--L------------|
--5----L--7--L------------|--3-----5-----7----------|--5----L--7--L----5g7--5--|
----------------0--3p--0--|-----0-----0-------0--0--|--------------------------|


                                                                 PM           
  E  E  E  E     H            Q    E  E  E  E  E   E     Q    E  E  H         
---------------------------|--------------------------|----------------------|
---------------------------|--------------------------|----------------------|
--------------8g12~--------|--7----L--9--L------------|--5----7-----9--------|
---------------------------|--7----L--9--L------------|--5----7-----9--------|
--4------------------------|--5----L--7--L------------|--3----5-----7--------|
-----5--3--0---------------|----------------0--3p--0--|----------0-----------|


  Q    E  E  Q      E  E     E  E  E  E  H            Q    E  E  E  E  E   E   
--------------------------|------------------------|--------------------------|
--------------------------|--------------4~--------|--------------------------|
--7----L--9--L------------|--------------3~--------|--7----L--9--L------------|
--7----L--9--L------------|--------------2~--------|--7----L--9--L------------|
--5----L--7--L----5g7--5--|--4-----------3~--------|--5----L--7--L------------|
--------------------------|-----5--3--0------------|----------------0--3p--0--|


          PM                                                                  
  Q    E  E  H           Q    E  E  Q      E  E     E  E  E  E   E  E  E  E   
----------------------|--------------------------|---------------------------|
----------------------|--------------------------|---------------------------|
--5----7-----9--------|--7----L--9--L------------|---------------------------|
--5----7-----9--------|--7----L--9--L------------|--------------/7--5--4-----|
--3----5-----7--------|--5----L--7--L----5g7--5--|--4---------------------5--|
----------0-----------|--------------------------|-----5--3--0---------------|


  E  E  E  E  E  E  Q       W                   W                   W                 
--------------------3----|--L----------------|--L----------------|--L----------------|
--------------------3----|--L----------------|--L----------------|--L----------------|
--------------------0----|--L----------------|--L----------------|--L----------------|
--------9--7--5----------|-------------------|-------------------|-------------------|
--3--0-----------7--3----|--L----------------|--L----------------|--L----------------|
-------------------------|-------------------|-------------------|-------------------|


  W                   W                   W                 
-------------------|-------------------|-------------------|
-------------------|-------------------|-------------------|
-------------------|-------------------|-------------------|
-------------------|-------------------|-------------------|
-------------------|-------------------|-------------------|
-------------------|-------------------|-------------------|

  
  W                                          
-------------------------------------------||
-------------------------------------------||
-------------------------------------------||
-------------------------------------------||
-------------------------------------------||
-------------------------------------------||



Guitar - right



     Q    E  E  E  E  E   E     Q    Q    H           Q    E  E  Q      E  E   
E||--------------------------|---------------------|--------------------------|
B||--------------------------|---------------------|--------------------------|
G||--7----L--9--L------------|--5----7----9--------|--7----L--9--L------------|
D||--7----L--9--L------------|--5----7----9--------|--7----L--9--L------------|
A||--5----L--7--L------------|--3----5----7--------|--5----L--7--L----5g7--5--|
E||----------------0--3p--0--|---------------------|--------------------------|


                                PM                                         
  E  E  E  E  H            Q    E  E  E  E  E   E     Q    E  E  H         
------------------------|--------------------------|----------------------|
--------------4~--------|--------------------------|----------------------|
--------------3~--------|--7-----------------------|--5----7-----9--------|
--------------2~--------|--7-----------------------|--5----7-----9--------|
--4-----------3~--------|--5-------7--L------------|--3----5-----7--------|
-----5--3--0------------|-------0--0--L--0--3p--0--|----------0-----------|


  Q    E  E  Q      E  E     E  E  E  E  H            Q    E  E  E  E  E   E   
--------------------------|------------------------|--------------------------|
--------------------------|--------------4~--------|--------------------------|
--7----L--9--L------------|--------------3~--------|--7----L--9--L------------|
--7----L--9--L------------|--------------2~--------|--7----L--9--L------------|
--5----L--7--L----5g7--5--|--4-----------3~--------|--5----L--7--L------------|
--------------------------|-----5--3--0------------|----------------0--3p--0--|


                 PM PM                                                    
  Q    Q    Q    E  E     Q    E  E  Q    E  E     E  E  E  E  H          
-----------------------|------------------------|------------------------|
-----------------------|------------------------|--------------4~--------|
--5----7----9----------|--7----L--9--L----------|--------------3~--------|
--5----7----9----------|--7----L--9--L----------|--------------2~--------|
--3----5----7----------|--5----L--7--L----7--5--|--4-----------3~--------|
-----------------0--0--|------------------------|-----5--3--0------------|


                                            PM PM                           
  Q    E  E  E  E  E   E     Q    Q    Q    E  E     Q    E  E  Q    E  E   
--------------------------|-----------------------|------------------------|
--------------------------|-----------------------|------------------------|
--7----L--9--L------------|--5----7----9----------|--7----L--9--L----------|
--7----L--9--L------------|--5----7----9----------|--7----L--9--L----------|
--5----L--7--L------------|--3----5----7----------|--5----L--7--L----7--5--|
----------------0--3p--0--|-----------------0--0--|------------------------|


  E  E  E  E  H            Q    Q    H           H        Q    E  E     Q    Q    H          
------------------------|---------------------|----------------------|----------------------|
--------------4~--------|--8------------------|----------------------|--6----7----8~--------|
--------------3~--------|--7------------------|----------------------|--5----6----7~--------|
--------------2~--------|---------------------|----------------------|----------------------|
--4-----------3~--------|---------------------|----------------------|--5----6----7~--------|
-----5--3--0------------|---------------------|-------------------0--|----------------------|


  H        E  E  Q       Q    Q    H           H        E  E  E  E     Q    Q    H          
----------------------|---------------------|-----------------------|----------------------|
-----------------9----|--8------------------|-----------------------|--6----7----8~--------|
-----------------8----|--7------------------|--------------x--x-----|--5----6----7~--------|
----------------------|---------------------|--------------x--x-----|----------------------|
-----------------8----|---------------------|-----------------------|--5----6----7~--------|
--------------0-------|---------------------|--------------------0--|----------------------|


  Q    Q    E  E  E   E     Q    E  E  E  E  E   E     Q    Q    H           Q    E  E  Q    E  E   
-------------------------|--------------------------|---------------------|------------------------|
-------------------------|--------------------------|---------------------|------------------------|
--x----x----x------------|--7----L--9--L------------|--5----7----9--------|--7----L--9--L----------|
--x----x----x------------|--7----L--9--L------------|--5----7----9--------|--7----L--9--L----------|
-------------------------|--5----L--7--L------------|--3----5----7--------|--5----L--7--L----7--5--|
---------------0--3p--0--|----------------0--3p--0--|---------------------|------------------------|


                                                                     PM PM  
  E  E  E  E  H            Q    E  E  E  E  E   E     Q    Q    Q    E  E   
------------------------|--------------------------|-----------------------|
--------------4~--------|--------------------------|-----------------------|
--------------3~--------|--7----L--9--L------------|--5----7----9----------|
--------------2~--------|--7----L--9--L------------|--5----7----9----------|
--4-----------3~--------|--5----L--7--L------------|--3----5----7----------|
-----5--3--0------------|----------------0--3p--0--|-----------------0--0--|


  Q    E  E  Q    E  E     E  E  E  E  H            Q    E  E  E  E  E   E   
------------------------|------------------------|--------------------------|
------------------------|--------------4~--------|--------------------------|
--7----L--9--L----------|--------------3~--------|--7----L--9--L------------|
--7----L--9--L----------|--------------2~--------|--7----L--9--L------------|
--5----L--7--L----7--5--|--4-----------3~--------|--5----L--7--L------------|
------------------------|-----5--3--0------------|----------------0--3p--0--|


  Q    Q    E    E  Q        Q    E  E  Q     E  E     E  E  E  E  H          
--------------------------|-------------------------|------------------------|
--------------------------|-------------------------|--------------4~--------|
--5----7----9--/12--9~----|--7----L--9--L~----------|--------------3~--------|
--5----7----9-------------|--7----L--9--L~----------|--------------2~--------|
--3----5----7-------------|--5----L--7--L~----7--5--|--4-----------3~--------|
--------------------------|-------------------------|-----5--3--0------------|


                                             PM PM                             
   Q    E  E  E  E  E   E     Q    Q    Q    E  E     Q    E  E  Q      E  E   
---------------------------|-----------------------|--------------------------|
---------------------------|-----------------------|--------------------------|
--12-------9--L------------|--5----7----9----------|--7----L--9--L------------|
--12-------9--L------------|--5----7----9----------|--7----L--9--L------------|
-----------7--L------------|--3----5----7----------|--5----L--7--L----5g7--5--|
--------0--------0--3p--0--|-----------------0--0--|--------------------------|


  E  E  E  E  H            Q    Q    H           H        E  E  E  E     Q    Q    H          
------------------------|---------------------|-----------------------|----------------------|
--------------4~--------|--8------------------|-----------------------|--6----7----8~--------|
--------------3~--------|--7------------------|-----------x--x--x-----|--5----6----7~--------|
--------------2~--------|---------------------|-----------x--x--x-----|----------------------|
--4-----------3~--------|---------------------|-----------------------|--5----6----7~--------|
-----5--3--0------------|---------------------|--------------------0--|----------------------|


           PM                                                                                
  H        E  E  Q        Q    Q    H           H        E  E  E  E     Q    Q    H          
-----------------------|---------------------|-----------------------|----------------------|
--------------9--9~----|--8------------------|-----------------------|--6----7----8~--------|
--------------8--8~----|--7------------------|-----------x--x--x-----|--5----6----7~--------|
-----------------------|---------------------|-----------x--x--x-----|----------------------|
-----------------------|---------------------|-----------------------|--5----6----7~--------|
-----------0-----------|---------------------|--------------------0--|----------------------|


                                               PM  PM     PM  PM                    
  H        E  E   Q         Q.       E   Q     E   E      E   E   Q      H          
------------------------|-----------------------------|----------------------------|
------------------------|--15-------------------------|----------------------------|
-----------x------------|--14b------12---L------------|--12------12b---------------|
-----------x------------|-----------12---L----14--12--|------14---------14~--------|
------------------------|-----------------------------|----------------------------|
--------------0--12\----|-----------------------------|----------------------------|


                      PM  PM                                                                    
   Q.       E   Q     E   E      E    E   H          E   E       Q      E   E    Q     E   E    
-----------------------------|----------------------12-------|---------12-------------12-------|
--15-------------------------|--------------------------15b--|---L~--------15b---L--------15b--|
--14b------12---L------------|--14b--12----------------------|---------------------------------|
-----------12---L----14--12--|-----------14~-----------------|---------------------------------|
-----------------------------|-------------------------------|---------------------------------|
-----------------------------|-------------------------------|---------------------------------|


   Q     E   E   E   E    E      S   S     S  S  S  S  S  S  S  S  S  S  S   S  E    S  S  
--------12-----------------------------|--------------------------------------------------|
---L--------15--12--14b---Lpbr--14p-12-|--14-12----12-------------------------------------|
---------------------------------------|--------15----15-14-12----14----12h-14-12~--------|
---------------------------------------|-----------------------14----14-------------14-12-|
---------------------------------------|--------------------------------------------------|
---------------------------------------|--------------------------------------------------|


                                                 PM PM                    PM PM  
   E   E    E   E   H            Q    Q    Q     E  E     Q    Q    Q     E  E   
------------------------------|------------------------|------------------------|
------------------------------|--6----7----8~----------|--6----7----8~----------|
--12--12b---------------------|--5----6----7~----------|--5----6----7~----------|
--12-------14--12--14~--------|------------------------|------------------------|
------------------------------|--5----6----------------|--5----6----------------|
------------------------------|------------------0--0--|------------------0--0--|


                                            PM                                                      
  Q    Q    Q     E  E     Q    Q     E  E  E  E     Q    E  E  Q    Q       E  E  Q    Q    E  E   
------------------------|-------------------------|-----------------------|------------------------|
--6----7----8~-------8--|-------8~-------8--------|--8-------8-------8----|-----8-------8-------8--|
--5----6----7~-------7--|-------7~-------7--------|--7-------7-------7----|-----7-------7-------7--|
------------------------|-------------------------|--6--------------------|------------------------|
--5----6----------------|-------------------------|----------7------------|-----7------------------|
------------------------|-------------------0--0--|-----------------------|------------------------|


  Q    Q    E  E  Q       Q    E  E  Q    Q       E  E  Q    H           H         
-----------------------|-----------------------|----------------------|-----------|
-------8-------8-------|--8-------8-------8----|-----8-------8--------|-----------|
-------7-------7-------|--7-------7-------7----|-----7-------7--------|-----------|
-------6-------6-------|--6-------6-------6----|-----6-------6--------|-----------|
-----------------------|-----------------------|-----7-------7--------|-----------|
-----------------------|-----------------------|----------------------|-----------|


   Q.        E    Q     E   E      E   E    Q      Q      E   E   
--17br-------------------------|--15--17b--15b---------------12--|
------------17~---L----15--17--|------------------17~----12------|
-------------------------------|---------------------------------|
-------------------------------|---------------------------------|
-------------------------------|---------------------------------|
-------------------------------|---------------------------------|


   E   E    E   E   E   E    S  S   S   S     S  S  S  S  S   S  S   S  H          
------15b---L--15--12---------------------|----------------------------15b--------|
--12-------------------15b---L-12h-15p-12-|--12-----------------------------------|
------------------------------------------|-----15-14-12-14p-12-------------------|
------------------------------------------|---------------------14p-12------------|
------------------------------------------|---------------------------------------|
------------------------------------------|---------------------------------------|


   Q        E   E    Q      E   E      E   E    E   E    Q      E   E   
--15pbr----12--------------12------|-----------------------------------|
---------------15b---L~--------15--|--12-------15----------------------|
-----------------------------------|------14b------14b--12~--------12--|
-----------------------------------|---------------------------14------|
-----------------------------------|-----------------------------------|
-----------------------------------|-----------------------------------|


   E   E   E   E   S   S  E   E   E      E   E    E   E   H           
-------------------------------------|-------------------17b~--------|
-------------------------------------|---------------15--------------|
-------------------------------------|------12--/16------------------|
--14--12------12-----------------12--|--14--12-----------------------|
----------14------14s-12-10--14------|-------------------------------|
-------------------------------------|-------------------------------|


   S     S  S  S  S  S    S  S  S  S  S    S  S  S   E   
--17pbr--L-15-------17br--L-15-------17br--L-15---------|
--------------17-15------------17-15------------17p-15--|
--------------------------------------------------------|
--------------------------------------------------------|
--------------------------------------------------------|
--------------------------------------------------------|


           |---3--|                                       
   S    S  S  S   S  S    S  S  S  S  S  S  S  E    S  S  
--17br--L-15--------17br--L-15----------15---------------|
-------------17p-15------------17-15-17----17--L~--15-17-|
---------------------------------------------------------|
---------------------------------------------------------|
---------------------------------------------------------|
---------------------------------------------------------|


   |---3---|  |---3---|   |---3---|  |---3--|               |---3---|  |---3---|  
   S   S   S  S   S   S   S   S   S  S   S  S  S  S  S   S  S   S   S  S   S   S  
----------------------------------------------------------------------12h-14h-15-|
--15p-14h-15--Lp-14p-12\-12p-11p-10-11p-10p-9--------------12h-14h-15------------|
----------------------------------------------12----12h-14-----------------------|
-------------------------------------------------14------------------------------|
---------------------------------------------------------------------------------|
---------------------------------------------------------------------------------|


   T       T              T       T                  T           T          
               |---3---|              |---3---|                             
   T   T   S   S   S   S  T   T   S   S   S   S  S   S   E   S   S   S   S  
--19p-15h-19p-15p-14p-12-19p-15h-19p-15p-14p-12-15h-17p-15---Lh-17p-15s-17-|
---------------------------------------------------------------------------|
---------------------------------------------------------------------------|
---------------------------------------------------------------------------|
---------------------------------------------------------------------------|
---------------------------------------------------------------------------|


      Q     Q     S   S   E   Q         S   S   S  S  S  S   S   S  S   S  E    Q      
--15g17----15----12h-15p-12---------|-------------------------------------------------|
-----------------------------15~----|--12h-15p-12----12-------------------------------|
------------------------------------|-------------15----15p-14p-12-14p-12-14b--12~----|
------------------------------------|-------------------------------------------------|
------------------------------------|-------------------------------------------------|
------------------------------------|-------------------------------------------------|


                dip trem down till end of triplet figure.                                   
                |--------------------3--------------------|      |----3----|    |--3-|      
      E    E    E                                         Q      E    E    E    E    Q      
-------------------------------------------------------------------------------------------|
-------------------------------------------------------------------------------------------|
--12g16h--19p--16h---------------------------------------19p----16h--19p--16h--19p--16h----|
-------------------------------------------------------------------------------------------|
-------------------------------------------------------------------------------------------|
-------------------------------------------------------------------------------------------|


                                  \4/                                               PM           
   S   S   S   S   S   S   S   S  Q     Q        Q    E  E  E  E  E   E     Q    E  E  H         
---------------------------------17-----------|--------------------------|----------------------|
----------------------------------------------|--------------------------|----------------------|
--19p-16h-19p-16h-19p-16h-19p-16--------------|--7----L--9--L------------|--5----7-----9--------|
----------------------------------------------|--7----L--9--L------------|--5----7-----9--------|
----------------------------------------------|--5----L--7--L------------|--3----5-----7--------|
---------------------------------------12\----|----------------0--3p--0--|----------0-----------|


  Q    E  E  Q    E  E     E  E  E  E  H            Q    E  E  E  E  E   E   
------------------------|------------------------|--------------------------|
------------------------|--------------4~--------|--------------------------|
--7----L--9--L----------|--------------3~--------|--7----L--9--L------------|
--7----L--9--L----------|--------------2~--------|--7----L--9--L------------|
--5----L--7--L----7--5--|--4-----------3~--------|--5----L--7--L------------|
------------------------|-----5--3--0------------|----------------0--3p--0--|


          PM                                                                   
  Q    E  E  E    E   Q        Q    E  E  Q    E  E     E  E  E  E  H          
----------------------------|------------------------|------------------------|
----------------------------|------------------------|--------------4~--------|
--5----7-----9--/16--12~----|--7----L--9--L----------|--------------3~--------|
--5----7-----9--------------|--7----L--9--L----------|--------------2~--------|
--3----5-----7--------------|--5----L--7--L----7--5--|--4-----------3~--------|
----------0-----------------|------------------------|-----5--3--0------------|


  Q    Q    H           H        E  E  E  E     Q    Q    H            H        E  E  Q      
---------------------|-----------------------|----------------------|-----------------------|
--8------------------|-----------------------|--6----7----8~--------|--------------9--9~----|
--7------------------|-----------x--x--x-----|--5----6----7~--------|-----------x--8--8~----|
---------------------|-----------x--x--x-----|----------------------|-----------x-----------|
---------------------|-----------------------|--5----6----7~--------|-----------------------|
---------------------|--------------------0--|----------------------|-----------------------|


                                                                PM PM                   PM    PM  
  Q    Q    H           H        E  E  E  E     Q    Q    Q     E  E       Q    Q    E  E  E  E   
---------------------|-----------------------|------------------------|--------------------------|
--8------------------|-----------------------|--6----7----8~----------|--------------------------|
--7------------------|-----------x--x--x-----|--5----6----7~----------|--7g9----7----9-----7-----|
---------------------|-----------x--x--x-----|------------------------|--7g9----7----9-----7-----|
---------------------|-----------------------|--5----6----7~----------|--------------------------|
---------------------|--------------------0--|------------------0--0--|-----------------0-----0--|


  Q    Q    H           S  S  E  Q     Q    E   E     Q    Q    Q     E  E   
---------------------|-----------------0-----------|------------------------|
--8------------------|--3p-2p-0--2~----0-----------|--6----7----8~----------|
--7------------------|-----------------------------|--5----6----7~----x--x--|
---------------------|----------------------7s--5--|------------------x--x--|
---------------------|-----------------------------|--5----6----7~----------|
---------------------|-----------------------------|------------------------|


                                  (Ty DOES move down to this position)                  
                                                                                    PM  
  E  E   E     E   Q     Q        Q                                    Q    Q    E  E   
-------------------------------|-------------------------------------------------------|
-------------------------------|--8~---------------------------------------------------|
--x--x--14br---L--12----14b----|--7~---------------------------------------------------|
--x--x--14br---L--12-----------|-------------------------------------------------------|
-------------------------------|-------------------------------------------------------|
-------------------------------|----------------------------------------------------0--|


            PM              PM                                                              
   Q     E  E   E    E   E  E      Q     E  E   Q     Q       E  E   E   E   Q      E   E   
-------------------------------|---------------------------|-------------------------------|
-------------------------------|---------------------------|-------------------------------|
--14----12-----12h--14--12-----|--10----11-----12~---------|--------14--12--14~----12------|
--14----12-----12h--14--12-----|--10----11-----12~---------|--------14--12--14~----12------|
-------------------------------|---------------------------|---------------------------14--|
------------0---------------0--|------------0--------------|-----0-------------------------|


  Q    Q    H           W                   W                   W                 
---------------------|-------------------|-------------------|-------------------|
---------------------|-------------------|-------------------|-------------------|
---------------------|-------------------|-------------------|-------------------|
---------------------|-------------------|-------------------|-------------------|
---------------------|-------------------|-------------------|-------------------|
--0------------------|-------------------|-------------------|-------------------|


  W                   W                   W                   W                   W                 
-------------------|-------------------|-------------------|-------------------|-------------------|
-------------------|-------------------|-------------------|-------------------|-------------------|
-------------------|-------------------|-------------------|-------------------|-------------------|
-------------------|-------------------|-------------------|-------------------|-------------------|
-------------------|-------------------|-------------------|-------------------|-------------------|
-------------------|-------------------|-------------------|-------------------|-------------------|


  W                   W                   W                   W                   W                 
-------------------|-------------------|-------------------|-------------------|-------------------|
-------------------|-------------------|-------------------|-------------------|-------------------|
-------------------|-------------------|-------------------|-------------------|-------------------|
-------------------|-------------------|-------------------|-------------------|-------------------|
-------------------|-------------------|-------------------|-------------------|-------------------|
-------------------|-------------------|-------------------|-------------------|-------------------|


  W                   W                   W                   W                   W                 
-------------------|-------------------|-------------------|-------------------|-------------------|
-------------------|-------------------|-------------------|-------------------|-------------------|
-------------------|-------------------|-------------------|-------------------|-------------------|
-------------------|-------------------|-------------------|-------------------|-------------------|
-------------------|-------------------|-------------------|-------------------|-------------------|
-------------------|-------------------|-------------------|-------------------|-------------------|


  W                   W                   W                   W                   W                 
-------------------|-------------------|-------------------|-------------------|-------------------|
-------------------|-------------------|-------------------|-------------------|-------------------|
-------------------|-------------------|-------------------|-------------------|-------------------|
-------------------|-------------------|-------------------|-------------------|-------------------|
-------------------|-------------------|-------------------|-------------------|-------------------|
-------------------|-------------------|-------------------|-------------------|-------------------|


                                PM    PM                                    
  Q    E  E  E  E  E   E     E  E  E  E  H           Q    E  E  Q    E  E   
--------------------------|-----------------------|------------------------|
--------------------------|-----------------------|------------------------|
--7----L--9--L------------|--5-----7-----9--------|--7----L--9--L----------|
--7----L--9--L------------|--5-----7-----9--------|--7----L--9--L----------|
--5----L--7--L------------|--3-----5-----7--------|--5----L--7--L----7--5--|
----------------0--3p--0--|-----0-----0-----------|------------------------|


                                                         PM    PM      PM PM  
  E  E  E  E  H            Q    E  E  E  E  E   E     E  E  E  E  Q    E  E   
------------------------|--------------------------|-------------------------|
--------------4~--------|--------------------------|-------------------------|
--------------3~--------|--7----L--9--L------------|--5-----7-----9----------|
--------------2~--------|--7----L--9--L------------|--5-----7-----9----------|
--4-----------3~--------|--5----L--7--L------------|--3-----5-----7----------|
-----5--3--0------------|----------------0--3p--0--|-----0-----0-------0--0--|


  Q    E  E  Q      E  E     E  E  E  E    H            Q    E  E  E  E  E   E   
--------------------------|--------------------------|--------------------------|
--------------------------|--------------------------|--------------------------|
--7----L--9--L------------|--------------5g9~--------|--7----L--9--L------------|
--7----L--9--L------------|--------------------------|--7----L--9--L------------|
--5----L--7--L----5g7--5--|--4-----------------------|--5----L--7--L------------|
--------------------------|-----5--3--0--------------|----------------0--3p--0--|


          PM                                                                                        
  Q    E  E  H           Q    E  E  Q    E  E     E  E  E  E  H            Q    E  E  E  E  E   E   
----------------------|------------------------|------------------------|--------------------------|
----------------------|------------------------|--------------4~--------|--------------------------|
--5----7-----9--------|--7----L--9--L----------|--------------3~--------|--7----L--9--L------------|
--5----7-----9--------|--7----L--9--L----------|--------------2~--------|--7----L--9--L------------|
--3----5-----7--------|--5----L--7--L----7--5--|--4-----------3~--------|--5----L--7--L------------|
----------0-----------|------------------------|-----5--3--0------------|----------------0--3p--0--|


          PM                                                                
  Q    E  E  H           Q    E  E  Q    E  E     E  E  E  E   E  E  E  E   
----------------------|------------------------|---------------------------|
----------------------|------------------------|---------------------------|
--5----7-----9--------|--7----L--9--L----------|---------------------------|
--5----7-----9--------|--7----L--9--L----------|--------------/7--5--4-----|
--3----5-----7--------|--5----L--7--L----7--5--|--4---------------------5--|
----------0-----------|------------------------|-----5--3--0---------------|


  E  E  E  E  E  E  Q       W                   W                   W                 
--------------------3----|--L----------------|--L----------------|--L----------------|
--------------------3----|--L----------------|--L----------------|--L----------------|
--------------------0----|--L----------------|--L----------------|--L----------------|
--------9--7--5----------|-------------------|-------------------|-------------------|
--3--0-----------7--3----|--L----------------|--L----------------|--L----------------|
-------------------------|-------------------|-------------------|-------------------|


  W                   W                   W                 
-------------------|-------------------|-------------------|
-------------------|-------------------|-------------------|
-------------------|-------------------|-------------------|
-------------------|-------------------|-------------------|
-------------------|-------------------|-------------------|
-------------------|-------------------|-------------------|

  
  W                                          
-------------------------------------------||
-------------------------------------------||
-------------------------------------------||
-------------------------------------------||
-------------------------------------------||
-------------------------------------------||


Tap to rate this tab
# A B C D E F G H I J K L M N O P Q R S T U V W X Y Z