Song name
# A B C D E F G H I J K L M N O P Q R S T U V W X Y Z

Kingsmen - Louie Louie tab

Artist:The Kingsmen.
Song:Louie Louie.
Tab:Lopez017.


Intro:

E||-------------------------------------------------|
B||-------------------------8---8---8---------------|
G||--2---2---2-----7---7----9---9---9----7---7------|
D||--2---2---2-----7---7----9---9---9----7---7------|
A||--0---0---0-----5---5----7---7---7----5---5------|
E||-------------------------------------------------|
Play this during the verse



E||------------------------------------------------------------|
B||------------------------------------------------------------|
G||-----------9--11--9-----------------------------------------|
D||------9--9--11--9-------------------------------------------|
A||-----9--7--9--7---------------------------------------------|
E||---7--------------------------------------------------------|
Play this at the chorus

The solo:
----|-5-----5-5-----5-5---8b--5-----5-|---------------------------------|
5---|-----8-------8-------------------|-8---5-------5-------------------|
----|---------------------------------|---------7b------7---5-----------|
----|---------------------------------|-------------------------7---5---|
----|---------------------------------|---------------------------------|
----|---------------------------------|---------------------------------|

-------------5-------------------|-----------------------------5---|
-------------5-------------------|-----------5---------5-----------|
-----5---7b------7b--7-5-7-5-----|-----5-7b----7---7b------7-------|
-7---------------------------7-5-|-7-------------------------------|
---------------------------------|---------------------------------|
---------------------------------|---------------------------------|

-8b--5---------5-----5-----------|---------------------------------|
---------8-5---5-----5-----------|-------------5-------------------|
-------------7b--7b------7---5---|-----5---7b------7b--7-5-7-5-----|
---------------------------------|-7---------------------------7-5-|
---------------------------------|---------------------------------|
---------------------------------|---------------------------------|

-----------------------------5---|---------------------------------|
-----------------------------5---|---------------------5-------5---|
-------------5---7---5-------7b--|---------7---5---7---------------|
-7-----7-7-----------------------|---------------------------------|
---------------------------------|---------------------------------|
---------------------------------|---------------------------------|

-5-----5-5---5-----------5-----5-|-5---5-5---5-5---5---5---5---5---|
---------------------------------|---------------------------------|
---------------------------------|---------------------------------|
---------------------------------|---------------------------------|
---------------------------------|---------------------------------|
---------------------------------|---------------------------------|

-8b--5---------5-----5-----------|---------------------------------|
---------8-5---5-----5-----------|-------------5-------------------|
-------------7b--7b------7---5---|-----5---7b------7b--7-5-7-5-----|
---------------------------------|-7---------------------------7-5-|
---------------------------------|---------------------------------|
---------------------------------|---------------------------------|

-----------------------------5---|---------------------------------|
-----------------------------5---|---------------------------------|
-------------5---7---5-------7b--|---------7---5---7---5-----------|
-7-----7-7-----------------------|-------------------------7---5---|
---------------------------------|---------------------------------|
---------------------------------|---------------------------------|

---------------------------------|-0---0---0-----------2---2-------|
---------------------7---7-------|-0---0---0-----------3---3-------|
---------------------7---7-------|-0---0---0-----------2---2-------|
-7---7---7-----------7---7-------|-2---2---2-----------0---0-------|
---------------------------------|-2---2---2-----------0---0-------|
---------------------------------|-0---0---0-----------------------|

The outro.  Play slowly once and then add the singing from the first verse and fade out.

E||-------------------------------------------------------|
B||---2---2---2-------7-----7-----8---8---8---7---7-------|
G||---2---2---2-------7-----7-----9---9---9---7---7-------|
D||-------------------------------------------------------|
A||---0---0---0-------5-----5-----7---7---7---5---5-------|
E||-------------------------------------------------------|
Tap to rate this tab
 
# A B C D E F G H I J K L M N O P Q R S T U V W X Y Z