Song name
# A B C D E F G H I J K L M N O P Q R S T U V W X Y Z

Kingston Falls - Weak Shall Prevail tab

Tabbed by: Satori Stahl
Artist: Kingston Falls
Song: The Weak Shall Prevail
Email: donkeykong13up@yahoo.com
Tunning:C#,G#,D#,f#,B,D

*-Palm mute
~-Let it ring
/-Slide
p-pull   


Intro: Guitar 1 and 2
|-----------------------------------------------|
|-----------------------------------------------|
|-----------------------------------------------|
|-----------------------------------------------|                    
|-----------------------------------------------|
|-1-1-1-1-1------1-1-1-----1-1-1-----1-1-1------|
 *  *  *  *     * * *     * * *     * * *

0:10  Guitar 1
|-----------------------------------------------------------------------------------------------|
|-----------------------------------------------------------------------------------------------|
|-14-14-14-14-14-14-14-14-15-15-15-15-15-14-14-14-14-17-17-17-17-17-17-16--16-19-17-16-17-16-14-|
|-----------------------------------------------------------------------------------------------|
|-----------------------------------------------------------------------------------------------|
|-----------------------------------------------------------------------------------------------|


0:10  Guitar 2
|----------------------------------------------------|
|-13-13-13-13-13-13-13-13-13-13-13-13-13-13-13-13-13-|
|----------------------------------------------------|
|----------------------------------------------------|
|----------------------------------------------------|
|---------------------------------------------------- 

0:15 Guitar 1 and 2
|-------------------------------------------------|
|-------------------------------------------------|
|-------------------------------------------------| x2
|-------------------------------------------------|
|-12-12-12-12-12-12-12/14-15-15-15-15-14-14-14-14-|
|-12-12-12-12-12-12-12/14-15-15-15-15-14-14-14-14-|


0:25 Guitar 1 and 2
|----------------------------------------------|
|----------------------------------------------|
|----------------------------------------------|
|----------------------------------------------|
|-1212-1212-1212-12/14-15-15-15-15-17-17-17-17-|
|-1212-1212-1212-12/14-15-15-15-15-17-17-17-17-|

0:29
|---------------------------------------------------------------|
|---------------------------------------------------------------|
|---------------------------------------------------------------|
|---------------------------------------------------------------|
|-12-12-12-12-12-12-12/14-15-15-15-15-16-16-16-16-17-17-17-17-17|
|---------------------------------------------------------------|


0:34 Guitar 2                                              0:40 Guitar 1
|------------------------------------------|              |------|         
|------------------------------------------|              |------|
|------------------------------------------|              |------|
|------------------------------------------|              |------|
|------------------------------------------|              |-0~---|
|-1--1-1-1-1--1-1-1-1--1--1-1-1-1--1-1-1-1-|              |-0~---|
  *  * * * *  * * * *  *  * * * *  * * * * 

0:46
|-----------------------------------|
|-----------------------------------|
|-----------------------------------| 
|-----------------------------------|palm mute
|-----------------------------------|
|-1-1-1-1-1-1-1-1-1-1-1-------------|

|-----------------------------------|
|-----------------------------------|
|-----------------------------------|
|-----------------------------------|palm mute
|-----------------------------------|
|1-1-1-111111--1-1-1-111111---------|


1:05 Guitar 1  Guitar 2 plays p20                                                                  
|-----------------------------------------------------------------| 
|-------------------------p20----------------------------p20------|      
|-----------------------------------------------------------------| x3     
|-----------------------------------------------------------------| 
|-8-8-8-8-7-7-7-7-4-4-4-4-5--8-8-8-8-7-7-7-7-13-13-13-13-12-------|    
|-----------------------------------------------------------------|  

I havent found out the part 1:20 to 1:30   sorry

1:31 Guitar 1 and 2 chores
|-------------------------------------|
|-------------------------------------|
|-------------------------------------|
|-------------------------------------|x6
|-6-6-6/8/9-9-9-9/11-11-11/12-14-14-14|
|-6-6-6/8/9-9-9-9/11-11-11/12-14-14-14|
                           
  

1:58 Guitar 1 and 2
|---------------------------------------|
|---------------------------------------|
|---------------------------------------|
|---------------------------------------|
|-8~/10~--------------------------------|
|-8~/10~--------------------------------|

2:02 solo guitar 1
|---------------------------------------------------------------------------------|
|---------------------------------------------------------------------------------|
|7--7--7--7-9-9-10-10-9-9-9-9-10-10-12-12-10-9-10-9-10-9-10-9-12-12-12-15-15-15-15|
|---------------------------------------------------------------------------------|
|---------------------------------------------------------------------------------|
|---------------------------------------------------------------------------------|

|---------------------------------------------------------------------------------------------|
|14-10-14-10-14-10-14-10-12-16-12-16-12-16-17-16-17-16-17-16-17-16-17-16-19-19-19-21-21-21-21-|
|---------------------------------------------------------------------------------------------|
|---------------------------------------------------------------------------------------------|
|---------------------------------------------------------------------------------------------|
|---------------------------------------------------------------------------------------------|

|---------------------------------------------------------------------------------------------------|
|-14-14-14-14-12-12-10-10-9-9-9-9-7-7-7-7--5-4-5-7--5-4-5-7--5-5-7-7-9-9-9-9-10-10-10-10-12-12-10-10|
|---------------------------------------------------------------------------------------------------|
|---------------------------------------------------------------------------------------------------|
|---------------------------------------------------------------------------------------------------|
|---------------------------------------------------------------------------------------------------|

|------------------------------------------------------------------------|
|9-9-9-9-7-7-7-7--5-4-5-7--5-4-5-7--5-5-7-7-9-9-10-12--------------------|
|------------------------------------------------------------------------|                          
|------------------------------------------------------------------------|
|------------------------------------------------------------------------|
|------------------------------------------------------------------------|


2:34 Guitar 1 and 2
|----------------------|
|----------------------|
|----------------------|
|----------------------|
|8~/10~-------15-14-12-|
|8~/10~-------15-14-12-|

2:40 guitar 1 and 2                        2:53 Guitar 1
|----------------------------|              |------------------------------|
|----------------------------|              |------------------------------|
|----------------------------|              |------------------------------|
|----------------------------|              |------------------------------|
|----------------------------|              |------------------------------|
|-1-11-1-11111-1-1-111-111-1-|              |1-1---1-1-1-1--1-1-1-1-1-1-1--|
  * ** * ***** * * *** *** *                                  * * * * *

this is my first tab,if you have any ? or comments, please email me at
donkeykong13up@yahoo.com
if u would like to hear the song go to
www.purevolume.com/kingstonfalls

Tap to rate this tab
# A B C D E F G H I J K L M N O P Q R S T U V W X Y Z