Guitaretab - guitar tabs
Song name
# A B C D E F G H I J K L M N O P Q R S T U V W X Y Z

Kingston Falls - Well Let The Dice Decide tab

i only did one part and theres a few parts that i still havent figured out, and it is 
than likely no where close to how they play it but it sounds pretty close, and the tab 
is in standard tuning because i didn't feel like changing it but its in drop d

e|-----------------------------------------------------------------------------------------------|
B|-----------------------------------------------------------------------------------------------|
G|-----------------------------------------------------------------------------------------------|
D|------------0-000-000-000-000-0-----------8-8-8787------------0-000-000-000-000-0---------10~--|
A|--2-0-3-5-5-0-000-000-000-000-0-2-0-3-5-5-8-8-8787-2-0-3-5*---0-000-000-000-000-0-2-0-3-5-10~--|
E|------------0-000-000-000-000-0-----------8-8-8787------------0-000-000-000-000-0---------10~--|
PM            = === === === === =                               = === === ===
e|---------------------------------------------------------------------------|
B|---------------------------------------------------------------------------|
G|---------------------------------------------------------------------------|
D|------------0-000-000-000-000-0-----------7-8-7-5---5----------------------|
A|--2-0-3-5-5-0-000-000-000-000-0-2-0-3-5-5---------8---8-7------------------|x4
E|------------0-000-000-000-000-0--------------------------------------------|
PM            = === === === === =
e|---------------------------------------------------------------------------|
B|---------------------------------------------------------------------------|
G|--7--------9-10----------------12---------12-12-----9-------6--------------|
D|--7--------9-10----------------12---------12-12-----9-------6--------------|
A|--5--5-5-5-7-8---8-8-8-8-8-8-8-10--10-10--10-10--10-7-7-7-7-4-4-4----------|x4
E|---------------------------------------------------------------------------|
PM     = = =       = = = = = = =     =  =          =    = = =   = =
e|---------------------------------------------------------------------------|
B|---------------------------------------------------------------------------|
G|---------------------------------------------------------------------------|
D|--00-0000-0-0---0--0-0--0--0-0---------------------------------------------|
A|--00-0000-0-0---0--0-0--0--0-0---------------------------------------------|x2
E|--00-0000-0-0---0--0-0--0--0-0---------------------------------------------|
PM  == ==== = =   =  = =  =  = =
e|---------------------------------------------------------------------------|
B|---------------------------------------------------------------------------|
G|---------------------------------------------------------------------------|
D|--00-0000-0-0--000-000--000-000--------------------------------------------|
A|--00-0000-0-0--000-000--000-000--------------------------------------------|x4
E|--00-0000-0-0--000-000--000-000--------------------------------------------|
PM  == ==== = =  === ===  === ===

still haven't figured out this part

e|---------------------------------------------------------------------------|
B|---------------------------------------------------------------------------|
G|---------------------------------------------------------------------------|
D|--0-0-0-0-0-0-0-0--000000000000--------------------------------------------|
A|--0-0-0-0-0-0-0-0--000000000000--------------------------------------------|x3
E|--0-0-0-0-0-0-0-0--000000000000--------------------------------------------|
PM  = = = = = = = =  ============
e|---------------------------------------------------------------------------|
B|----------------------------(99999-9)--------------------------------------|
G|----------------------------(xxxxx-x)--------------------------------------|in()is
D|--0-0-0-0--(0-0-0-0)--0-0-0-(66666-6)--------------------------------------|guitar2
A|--0-0-0-0--(0-0-0-0)--0-0-0------------------------------------------------|
E|--0-0-0-0--(0-0-0-0)--0-0-0--------\\\\\\\\--------------------------------|
PM  = = = =   = = = =   = = =
e|---------------------------------------------------------------------------|
B|---------------------------------------------------------------------------|
G|---------------------------------------------------------------------------|
D|--00--0-0000-00--000-000-00--0-0000-00--000--------------------------------|
A|--00--0-0000-00--000-000-00--0-0000-00--000--------------------------------|x4
E|--00--0-0000-00--000-000-00--0-0000-00--000--------------------------------|
PM  ==  = ==== ==  === === ==  = ==== ==  ===
e|---------------------------------------------------------------------------|
B|---------------------------------------------------------------------------|
G|---------------------------------------------------------------------------|
D|--0~---6666666677779999-9999999777766667777666699997777--------------------|
A|--0~-----------------------------------------------------6/7-7-7h9p7-5-6~--|x2
E|--0~-----------------------------------------------------------------------|
     2nd time without the open chord
[ Tab from: http://www.guitaretab.com/k/kingston-falls/95963.html ]
e|---------------------------------------------------------------------------|
B|---------------------------------------------------------------------------|
G|-------------------------------/10p7h8p7-x4-10-x6--12-x6-------------------|
D|-6h7p6h9p-x6---p6h9p6h7p6-6h7----------------------------------------------|
A|---------------------------------------------------------------------------|
E|---------------------------------------------------------------------------|

e|--t12p5h8p5t12p5h8p5-t12p5h8t12p8p5-t12p5----------------------------------|
B|---------------------------------------------------------------------------|
G|---------------------------------------------------------------------------|
D|---------------------------------------------------------------------------|
A|---------------------------------------------------------------------------|
E|---------------------------------------------------------------------------|

e|--t12p5h7p5t12p5h7p5-t12p5h7t12p7p5-t12p5----------------------------------|
B|---------------------------------------------------------------------------|
G|---------------------------------------------------------------------------|
D|---------------------------------------------------------------------------|
A|---------------------------------------------------------------------------|
E|---------------------------------------------------------------------------|

e|--t12p8p5-x4--t13p8p5-x2--t12p8p5-x2--t13p8p5-x4--t12p8p5-x2--t13p8p5--t12p8p5---|
B|---------------------------------------------------------------------------------|
G|---------------------------------------------------------------------------------|
D|---------------------------------------------------------------------------------|
A|---------------------------------------------------------------------------------|
E|---------------------------------------------------------------------------------|

e|---------------------------------------------------------------------------|
B|---------------------------------------------------------------------------|
G|---------------------------------------------------------------------------|
D|---------------------------------------------------------------------------|
A|--0h2p0-h3p0-h5p0-h7p0-h9p0-h11p0-h12p0-h14p0------------------------------|
E|---------------------------------------------------------------------------|

e|------------------------------------------------------------------------------------|
B|------------------------------------------------------------------------------------|
G|------------------------------------------------------------------------------------|
D|------------0-000-000-000-000-0-----------8-8-8787------------0-000-000-000-000-0---|
A|--2-0-3-5-5-0-000-000-000-000-0-2-0-3-5-5-8-8-8787-2-0-3-5*---0-000-000-000-000-0---|
E|------------0-000-000-000-000-0-----------8-8-8787------------0-000-000-000-000-0---|
PM            = === === === === =                               = === === ===
e|---------------------------------------------------------------------------|
B|---------------------------------------------------------------------------|
G|---------------------------------------------------------------------------|
D|-----5-7-5-----------------------------------------------------------------|
A|--/8-------7*--------------------------------------------------------------|
E|---------------------------------------------------------------------------|

e|---------------------------------------------------------------------------|
B|---------------------------------------------------------------------------|
G|---------------------------------------------------------------------------|
D|------------0-000-000-000-000-0-----------7-8-7-5---5----------------------|
A|--2-0-3-5-5-0-000-000-000-000-0-2-0-3-5-5---------8---8-7------------------|x4
E|------------0-000-000-000-000-0--------------------------------------------|
PM            = === === === === =
e|---------------------------------------------------------------------------|
B|---------------------------------------------------------------------------|
G|---------------------------------------------------------------------------|
D|--0-0-0-0--000-0-0-0-0-----------------------------------------------------|
A|--0-0-0-0--000-0-0-0-0-----------------------------------------------------|
E|--0-0-0-0--000-0-0-0-0---OH-YEAH!------------------------------------------|
PM  = = = =  === = = = =
e|---------------------------------------------------------------------------|
B|---------------------------------------------------------------------------|
G|---------------------------------------------------------------------------|
D|--0-0-0-0--000-0-0-0-0-0------0-0-0-0-000-0--000-0-0-----------------------|
A|--0-0-0-0--000-0-0-0-0-0------0-0-0-0-000-0--000-0-0-----------------------|x4
E|--0-0-0-0--000-0-0-0-0-0------0-0-0-0-000-0--000-0-0-----------------------|
PM  = = = =  === = = = = =      = = = = === =  === = =
e|---------------------------------------------------------------------------------------|
B|---------------------------------------------------------------------------------------|
G|---------------------------------------------------------------------------------------|
D|--0~--------------------------0--------------------------------------------------------|
A|--0~-------2-0-3-5-3-2-0------0--------------------------------------------------------|
E|--0~--------------------------0--------------------------------------------------------|

like i said i dont have a few parts and i'm sure its wrong in a lot of places but it sounds pretty good
Related for Well Let The Dice Decide tab