Song name
# A B C D E F G H I J K L M N O P Q R S T U V W X Y Z

Kingston Trio - Scotch And Soda tab

From:   bcaviator
SCOTCH AND SODA, written by  Dave Guard
and performed by the Kingston Trio

Adapted / Arranged by Jimi Lee
Video of Jimi Lee playing this can be seen on YouTube here:
http://www.youtube.com/watch?v=LShpetqCaRE
Watching the video can really help you get the feel and rhythm of the changes, as well 
as get the additional voicings that he puts in. Also, its' well worth watching / 
listening to his arrangement and harmonica work, which is excellent.

======================================================

Chord Chart:

   Ebmaj7  BbDim    Fm7     Bb13    Gm7     C9     Fmin7    Bbm7    Eb9      A7
e:---6---|---6---|---8---|---8---|---3---|---3---|---1---|---6---|---6---|---x---|
B:---8---|---8---|---9---|---8---|---3---|---3---|---1---|---6---|---6---|---5---|
G:---7---|---6---|---8---|---7---|---3---|---3---|---1---|---6---|---6---|---6---|
D:---8---|---8---|---x---|---6---|---3---|---2---|---1---|---6---|---5---|---5---|
A:---6---|---7---|---8---|---x---|---x---|---3---|---x---|---x---|---6---|---x---|
E:---x---|---X---|---x---|---6---|---3---|---x---|---1---|---6---|---x---|---5---|




   Abmaj7   Abm7     F7     Ab?  Bb/Ebmaj7   F9
e:---x---|---4---|---1---|---x---|---6---|---3---|
B:---4---|---4---|---1---|---4---|---8---|---3---|
G:---5---|---4---|---2---|---5---|---7---|---3---|
D:---5---|---4---|---1---|---3---|---8---|---2---|
A:---x---|---x---|---3---|---x---|---x---|---3---|
E:---4---|---4---|---1---|---4---|---6---|---x---|




  Ebmaj7                      BbDim                       Fm7
e:---x---|-------|-------|  e:---x---|-------|-------|  e:-------|---x---|-------|
B:-------|-------|---x---|  B:-------|-------|---x---|  B:-------|-------|---x---|
G:-------|---x---|-------|  G:---x---|-------|-------|  G:-------|---x---|-------|
D:-------|-------|---x---|  D:-------|-------|---x---|  D:-------|-------|-------|
A:---x---|-------|-------|  A:-------|---x---|-------|  A:-------|---x---|-------|
E:-------|-------|-------|  E:-------|-------|-------|  E:-------|-------|-------|
     6       7       8           6       7       8           7       8       9


  Bb13                        Gm7                         C9
e:-------|-------|---x---|  e:-------|---x---|-------|  e:-------|---x---|-------|
B:-------|-------|---x---|  B:-------|---x---|-------|  B:-------|---x---|-------|
G:-------|---x---|-------|  G:-------|---x---|-------|  G:-------|---x---|-------|
D:--x----|-------|-------|  D:-------|---x---|-------|  D:---x---|-------|-------|
A:-------|-------|-------|  A:-------|-------|-------|  A:-------|---x---|-------|
E:--x----|-------|-------|  E:-------|---x---|-------|  E:-------|-------|-------|
    6        7       8           2       3       4           2       3       4


  Fm7                         Bbm7                        Eb9
e:---x---|-------|-------|  e:-------|---x---|-------|  e:-------|---x---|-------|
B:---x---|-------|-------|  B:-------|---x---|-------|  B:-------|---x---|-------|
G:---x---|-------|-------|  G:-------|---x---|-------|  G:-------|---x---|-------|
D:---x---|-------|-------|  D:-------|---x---|-------|  D:---x---|-------|-------|
A:-------|-------|-------|  A:-------|-------|-------|  A:-------|---x---|-------|
E:---x---|-------|-------|  E:-------|---x---|-------|  E:-------|-------|-------|
     1       2       3           5       6       7          5        6       7


  A7                          Abmaj7                      Abm7
e:-------|-------|-------|  e:-------|-------|-------|  e:-------|---x---|-------|
B:-------|---x---|-------|  B:-------|---x---|-------|  B:-------|---x---|-------|
G:-------|-------|---x---|  G:-------|-------|-------|  G:-------|---x---|-------|
D:-------|---x---|-------|  D:-------|-------|---x---|  D:-------|---x---|-------|
A:-------|-------|-------|  A:-------|-------|---x---|  A:-------|-------|-------|
E:-------|---x---|-------|  E:-------|---x---|-------|  E:-------|---x---|-------|
     4       5       6           3       4       5           3       4       5


  F7                          Ab?                         Bb/Ebmaj7
e:---x---|-------|-------|  e:-------|-------|-------|  e:---x---|-------|-------|
B:---x---|-------|-------|  B:-------|---x---|-------|  B:-------|-------|---x---|
G:-------|---x---|-------|  G:-------|-------|---x---|  G:-------|---x---|-------|
D:---x---|-------|-------|  D:---x---|-------|-------|  D:-------|-------|---x---|
A:-------|-------|---x---|  A:-------|-------|-------|  A:-------|-------|-------|
E:---x---|-------|-------|  E:-------|---x---|-------|  E:---x---|-------|-------|
     1       2       3           3       4       5           6       7       8


  F9                          E9                          C/F9
e:-------|---x---|-------|  e:-------|---x---|-------|  e:-------|---x---|-------|
B:-------|---x---|-------|  B:-------|---x---|-------|  B:-------|---x---|-------|
G:-------|---x---|-------|  G:-------|---x---|-------|  G:-------|---x---|-------|
D:---x---|-------|-------|  D:---x---|-------|-------|  D:---x---|-------|-------|
A:-------|---x---|-------|  A:-------|---x---|-------|  A:-------|-------|-------|
E:-------|-------|-------|  E:-------|-------|-------|  E:-------|---x---|-------|
     7       8       9           6       7       8           7       8       9


========================================

Intro:

       Ebmaj7         BbDim           Fm7            Bb13           Gm7            C7
e:-----------6-------------6-----|----------8--------------8-----|-----3-----------3-------------|
B:-----------8--8----------8--8--|----------9--9-----------8--8--|-----3--3--------3--3----------|
G:-----------7-------------6-----|----------8--------------7-----|-----3-----------3-------------|
D:-------8--------------8--------|-------8--------------6--------|-----3-----------2-------------|
A:-----6-----------6--7----------|-7--8-----------8--------------|-----------------3-------------|
E:-------------------------------|-------------------6-----------|--3-----------3----------------|
       Slow, syncopated... let chords ring


     Fm7        Bb13       A7         Abmaj7  (Verse I begins)
e:---1----------8----------------|-------------------------------|
B:---1--1-------8----------5-----|----4--------------------------|
G:---1----------7----------6-----|----5--------------------------|
D:---1----------6----------5-----|----5--------------------------|
A:-------------------------------|-------------------------------|
E:---1-----1----6----------5-----|----4--------------------------|
           Slide



e:-------------------------------|-------------------------------|-------------------------------|
B:-------------------------------|-------------------------------|-------------------------------|
G:-------------------------------|-------------------------------|-------------------------------|
D:-------------------------------|-------------------------------|-------------------------------|
A:-------------------------------|-------------------------------|-------------------------------|
E:-------------------------------|-------------------------------|-------------------------------|


========================================


Verse I

Abmaj7                Abm7                        Gm7           (Changes before next line)
   Scotch  and  soda,    mud   in   your  eye.

                  C9                    F7        Bb13          (changes before next line)
   Baby, Baby do  I   feel  high,   Oh  my

                      Bbm7     Eb9    A7                        (changes before next line)
   do   I     feel    high.


Verse II

Abmaj7                Abm7                        Gm7           (Changes before next line)
   Dry   martini,        jigger  of  gin

                           C9              F7     Bb13          (changes before next line)
   oh, what a spell you've got me in,  oh  my

                      Bbm7     Eb9    A7                        (changes before next line)
   do   I    feel    high.


Bridge

Ab?                 Abmaj7
   People   won't   believe   me.

            Gm7            Fm            Bb/Ebmaj7
   They'll  think   that   I'm    just   braggin'.

F7                           F7
   But  I   could   feel     the   way     I    do

          Fmin                       Bb13       A7
   and    still   be   on    the     wag--on.



Chorus

Abmaj7                  Abm7                           Gm7      (Changes before next line)
   All    I    need   is    one   of   your   smiles

                            C9           F7     Bb13            (changes before next line)
   sunshine   of    your    eyes,   oh   my

                    Gm7                             C9
   do   I   feel    higher   than   a   kite   can  fly.

F7                       Bb13                         Bb/Ebmaj7 /  Bbmin7 / A7
   Give    me   lovin',      baby   I    feel  high.


Bridge

Ab?                 Abmaj7
   People   won't   believe   me.

            Gm7            Fm            Bb/Ebmaj7   Eb9 - E9 - F9
   They'll  think   that   I'm    just   braggin'.

F9                 C/F9            F9           C/F9
   But  I   could   feel     the   way     I    do

          Fmin7                      Bb13       A7
   and    still   be   on    the     wag--on.



Chorus

Abmaj7                  Abm7                           Gm7      (Changes before next line)
   All    I    need   is    one   of   your   smiles

                            C9           F7     Bb13            (changes before next line)
   sunshine   of    your    eyes,   oh   my

                    Gm7                             C9
   do   I   feel    higher   than   a   kite   can  fly.

F7                       Bb13                         Bb13 / A13 / Ab13
   Give    me   lovin',      baby   I    feel  high.

Gm7                      C9
   I   feel    higher   than   a   kite   can  fly.


F7                       Bb13                         Bb/Ebmaj7  /  Ab?  /  Bb/Ebmaj7
   Give    me   lovin',      baby   I    feel  high.
Tap to rate this tab
# A B C D E F G H I J K L M N O P Q R S T U V W X Y Z