Song name
# A B C D E F G H I J K L M N O P Q R S T U V W X Y Z

Kingston Trio - Tom Dooley tab

                     Tom Dooley - Kingston Trio
----------------------------------------------------------------------------          
**(My grandfathers classic way to play Tom Dooley on an Acoustic.)**
Tabbed by: SethNile

Leave Comments below for suggestions or requests.   

Tuning: Standard

e|-----------0-----4--4------------------------------------------------------|
B|-0-0-0-2-------------------------------------------------------------------|
G|---------------------------------------------------------------------------|
D|---------------------------------------------------------------------------|
A|---------------------------------------------------------------------------|
E|---------------------------------------------------------------------------|

e|---------0---2-------------------------------------------------------------|
B|-0-0-0-2-------------------------------------------------------------------|
G|---------------------------------------------------------------------------|
D|---------------------------------------------------------------------------|
A|---------------------------------------------------------------------------|
E|---------------------------------------------------------------------------|

e|------------0----2-2-------2-2-4-0-------0---------------------------------|
B|--0-0-0-2-----------------------------2------------------------------------|
G|---------------------------------------------------------------------------|
D|---------------------------------------------------------------------------|
A|---------------------------------------------------------------------------|
E|---------------------------------------------------------------------------|
Tap to rate this tab
# A B C D E F G H I J K L M N O P Q R S T U V W X Y Z