Song name
# A B C D E F G H I J K L M N O P Q R S T U V W X Y Z

Kingston Wall - Shine On Me tab

-------------------------------------------------------------------------------
			     SHINE ON ME - Kingston Wall
-------------------------------------------------------------------------------
Tabbed by:xinjinbei
Email:xinjinbei@gmail.com

Tuning:Standard Tuning

E||--9--------9----------|--11--9-----------9--------|------------------------|
B||--9--------9----------|---------9-----------9--8--|-----------11-------11--|
G||--9--------9-------9--|------------9--------------|------------------------|
D||----------------------|---------------------------|--9---------------------|
A||----------------------|---------------------------|------------------------|
E||----------------------|---------------------------|------------------------|



--------------------|------------------------|-----------------------|
--9-----------------|-------------9--7-------|------------7--5-------|
--------------------|------------------------|-----------------------|
--------------------|-------11---------------|-------9---------------|
--------------------|--9---------------------|--7--------------------|
--------------------|------------------------|-----------------------|


                
-------------------||
-------------------||
-------------------||
-------------------||
--9----------------||
--9----------------||

Tap to rate this tab
# A B C D E F G H I J K L M N O P Q R S T U V W X Y Z