Song name
# A B C D E F G H I J K L M N O P Q R S T U V W X Y Z

Kingston Wall - For All Mankind tab

-------------------------------------------------------------------------------
			     FOR ALL MANKIND - Kingston Wall
-------------------------------------------------------------------------------
Tabbed by:xinjinbei
Email:xinjinbei@gmail.com

Usually when I play this song, I have delay set to about 257ms, feedback to 45% and mix to 45%.

Main Riff

|----------7-7-9-9-7-7-----|------9-9-7-7-------------|
|------5-5-------------9-5-|--------------9-9-5-5-5---|
|--6-6---------------------|--6-6-------------------6-|
|--------------------------|--------------------------|
|--------------------------|--------------------------|
|--------------------------|--------------------------|


|----------11-11-9-9---------|--11-11-9-9---------------------|
|------7-7-----------11-11-7-|------------11-11-7-7-11-11-----|
|--8-8-----------------------|----------------------------8-8-|
|----------------------------|--------------------------------|
|----------------------------|--------------------------------|
|----------------------------|--------------------------------|



Interlude

|--------|------------------|
|--------|------------------|
|------4-|--4-4-4-1-1-1-----|
|----2---|--------------2-2-|
|--4-----|------------------|
|--------|------------------|

|--------|------------------|
|--------|------------------|
|------6-|--6-6-6-3-3-3-----|
|----4---|--------------4-4-|
|--6-----|------------------|
|--------|------------------|
Tap to rate this tab
 
# A B C D E F G H I J K L M N O P Q R S T U V W X Y Z