Song name
# A B C D E F G H I J K L M N O P Q R S T U V W X Y Z

Kingston Wall - With My Mind tab

Something like this:
my first tab.
the song is in half-step down tuning, i wrote it on standard.

Use delay...

Intro:

e-----------------------------2----2-|
b----5---3---3---2---2---0-----2---2-|
g-------------------------------4----|
d----5---4---2---2-------------------|
a----3---2---0---0---2---2--------4--|
e--------------------3---3---2---2---|

Main riff

e------22-0x--0x0-|
b----xx00x02-x020-|
g4---xx44x44-x444-|
d4---xx44x44-x444-|
a2---xx-----------|
e-----------------|

The verse riff:
use these chords, listen to the song to get the idea...
e0-------0---0---|
b0---3---0---0---|
gx---2---x---3-2-|
d2---0---2---4-2-|
a2-------2---4-0-|
e0-------0---2---|

and the solo riff, use chords d5, a#5, f5, d5, f5, g5
thats about it.
Tap to rate this tab
 
# A B C D E F G H I J K L M N O P Q R S T U V W X Y Z