Song name
# A B C D E F G H I J K L M N O P Q R S T U V W X Y Z

Kingston Wall - Time tab

Kingston Wall - Time

Tabbed by: Niklas Kumpulainen
Tuning: Eb

|---5-----------------------------------------------5----------8~--------------|
|---6-----------10-8h10h8-----------------------8p5-5--8p5----10~--------------|
|---7---5p7---------------10-7h10p7------------------------10------7-5---------|
|---7-7-----------------------------8--5-7--5h7------------10----------7-5-----|
|-5-5-------------------------------------------------------8--------------8---|
|-----------3------------------------------------------------------------------|

|---5-----------------------------------------------5-------8-----------------------------|
|---6-----------10-8h10h8-----------------------8p5-5--8p5-10--10-10-9-9-8-8-6-6----------|
|---7---5p7---------------10-7h10p7------------------------10--------------------5-5-6-6--|
|---7-7-----------------------------8--5-7--5h7------------10-----------------------------|
|-5-5-------------------------------------------------------8-----------------------------|
|-----------3-----------------------------------------------------------------------------|


Verse: Dm Gm Am F

now you've learned about it
and now you'll just have to bear
there's something in it for everyone
just pick up what you please cause you know sometimes it seems
things could go so much better
and I can't help it, I'd really like to see the day when no one gets
jealous greedy, cruel or unhappy
bored fucked up or ruined, wimpy, sad, mislead or fooled
we've got to face it, it's


D5 	G5    E5      F5
time to grow, time to know
Bb5     G5          F#5  Bb5
time to see in what we believe
E5     F#5	     G5              A5        E5
as the time goes by, we'll know that it was on our side
E5                     G5
but come to understand the time
                                E5
and you'll realize it's in your mind


one day we're all gonna laugh about it
about how easy we are to rule
to take our innerselves away from us
and knock, knock, knocking on it up there where we are blinded with faith
in something called the only truth
no, I can't buy it, I mean how can I believe when I see people get
jealous, greedy, cruel and unhappy, bored, fucked up and
ruined, wimpy, sad, mislead and fooled

we've got to face it, it's


D5 	G5    E5      F5
time to grow, time to know
Bb5     G5          F#5  Bb5
time to see in what we believe
E5     F#5	     G5              A5        E5
as the time goes by, we'll know that it was on our side
E5                     G5
but come to understand the time
                                E5
and you'll realize it's in your mind



[Solo 1] same chords as verse x4

[Chorus]


D5 	G5    E5      F5
time to grow, time to know
Bb5     G5          F#5  Bb5
time to see in what we believe
E5     F#5	     G5              A5        E5
as the time goes by, we'll know that it was on our side
E5                     G5
but come to understand the time
                                E5
and you'll realize it's in your mind
E5                     G5
here come to understand the time
                                E5
and you'll realize it's in your mind
E5                     G5
here come to understand the time
                                E5
and you'll realize it's in your mind
E5                     G5
here come to understand the time
                                E5
and you'll realize it's in your mind



[Solo 2] same chords as verse x8
Tap to rate this tab
 
# A B C D E F G H I J K L M N O P Q R S T U V W X Y Z