Song name
# A B C D E F G H I J K L M N O P Q R S T U V W X Y Z

Kinison - Youll Never Guess Who Died tab

Help us improve GuitareTab! Take a short survey!
You'll never guess who died- The kinison

I have looked at alot of crapy tabs for this, and this is like 95 percent right

                       Intro
E-5-5-x--x-5-5-x--x-5-5-x--x-5-5-x--x-5-5-x--x-5-5-x--x-5-5-x--x-5-5------|
B-6-6-x--x-6-6-x--x-6-6-x--x-6-6-x--x-8-8-x--x-8-8-x--x-8-8-x--x-8-8------|
G-7-7-x--x-7-7-x--x-7-7-x--x-7-7-x--x-5-5-x--x-5-5-x--x-5-5-x--x-5-5------|
D-------------------------------------------------------------------------|
A-------------------------------------------------------------------------|
E-------------------------------------------------------------------------|

E---------------------------------------------5-5-x--x-5-5-x--x-5--5--x--x|
B-8--10-x--x-8--10-x--x-8--10-x--x-8--10-x--x-8-8-x--x-8-8-x--x-10-10-x--x|
G-10-10-x--x-10-10-x--x-10-10-x--x-10-10-x--x-5-5-x--x-5-5-x--x-5--5--x--x|
D-------------------------------------------------------------------------|
A-------------------------------------------------------------------------|
E-------------------------------------------------------------------------|

E--5-5------------| 
B--8-8------------|
G--5-5------------|
D-----------------|
A-----------------|
E-----------------| (into x4)


                       Chours 
E--------------------------------------------------------------------------|
B--------------------------------------------------------------------------|
G-7-7-7-9-9-9-10-10-10-14-14-14-12-12--12-12--12-12--12-12-----------------|
D-x-x-x-x-x-x-x--x--x--x--x--x--x--x---x--x---x--x---x--x------------------|
A-5-5-5-7-7-7-8--8--8--12-12-12-10-10--10-10--10-10--10-10-----------------|
E--------------------------------------------------------------------------|(chorus x2)

E--------------------------------------------------------------------------|
B--------------------------------------------------------------------------|
G-7-7-7-9-9-9-10-10-10-14-14-14--------------------------------------------|
D-x-x-x-x-x-x-x--x--x--x--x--x---------------------------------------------|
A-5-5-5-7-7-7-8--8--8--12-12-12--------------------------------------------|
E--------------------------------------------------------------------------|


E-5-5-x--x-5-5-x--x-5-5-x--x-5-5------------------------------------------|
B-6-6-x--x-6-6-x--x-6-6-x--x-6-6------------------------------------------|
G-7-7-x--x-7-7-x--x-7-7-x--x-7-7------------------------------------------|
D-------------------------------------------------------------------------|
A-------------------------------------------------------------------------|
E-------------------------------------------------------------------------|

Back to intro 
E-5-5-x--x-5-5-x--x-5-5-x--x-5-5-x--x-5-5-x--x-5-5-x--x-5-5-x--x-5-5------|
B-6-6-x--x-6-6-x--x-6-6-x--x-6-6-x--x-8-8-x--x-8-8-x--x-8-8-x--x-8-8------|
G-7-7-x--x-7-7-x--x-7-7-x--x-7-7-x--x-5-5-x--x-5-5-x--x-5-5-x--x-5-5------|
D-------------------------------------------------------------------------|
A-------------------------------------------------------------------------|
E-------------------------------------------------------------------------|

E---------------------------------------------5-5-x--x-5-5-x--x-5--5--x--x|
B-8--10-x--x-8--10-x--x-8--10-x--x-8--10-x--x-8-8-x--x-8-8-x--x-10-10-x--x|
G-10-10-x--x-10-10-x--x-10-10-x--x-10-10-x--x-5-5-x--x-5-5-x--x-5--5--x--x|
D-------------------------------------------------------------------------|
A-------------------------------------------------------------------------|
E-------------------------------------------------------------------------|
(intro x2)

              Back to chorus
E--------------------------------------------------------------------------|
B--------------------------------------------------------------------------|
G-7-7-7-9-9-9-10-10-10-14-14-14-12-12--12-12--12-12--12-12-----------------|
D-x-x-x-x-x-x-x--x--x--x--x--x--x--x---x--x---x--x---x--x------------------|
A-5-5-5-7-7-7-8--8--8--12-12-12-10-10--10-10--10-10--10-10-----------------|
E--------------------------------------------------------------------------|
(Chorus x4)
                   Then only bass, and guitar jumps in

E--------------------------------------------------------------------------
B--------------------------------------------------------------------------
G-7--7-7--7--7-7--7--7-7--7--9-9--5--5-5--5--5-5---5--5-5--5--5-5----------
D-7--7-7--7--7-7--7--7-7--7--9-9--5--5-5--5--5-5---5--5-5--5--5-5----------
A-5--5-5--5--5-5--5--5-5--5--7-7--3--3-3--3--3-3---3--3-3--3--3-3----------
E--------------------------------------------------------------------------
(x2)

               Back to chorus
E--------------------------------------------------------------------------|
B--------------------------------------------------------------------------|
G-7-7-7-9-9-9-10-10-10-14-14-14-12-12--12-12--12-12--12-12-----------------|
D-x-x-x-x-x-x-x--x--x--x--x--x--x--x---x--x---x--x---x--x------------------|
A-5-5-5-7-7-7-8--8--8--12-12-12-10-10--10-10--10-10--10-10-----------------|
E--------------------------------------------------------------------------|
(x4) 
                     The End
Related for Youll Never Guess Who Died tab