Song name
# A B C D E F G H I J K L M N O P Q R S T U V W X Y Z

Kinison - Wasting My Air tab

Help us improve GuitareTab! Take a short survey!
Band - The Kinison
Song - Wasting My Air

Tuning: Drop D

e|---------------------------------------------------------------|
B|---------------------------------------------------------------|
G|---------------------------------------------------------------|
D|-3-3-3-2-2-2-5-5-5/3---2--2--2--2--5--3--3--3--3--3--3--3-3~~~-| x2
A|-0-0-0-0-0-0-0-0-0/0-0--0--0--0--0--0--0--0--0--0--0--0---3~~~-|
D|----------------------------------------------------------3~~~-|

e|---------------------------------------------------------------|
B|---------------------------------------------------------------|
G|--7-7-7-7-7-7-10-9-9-9-9-9-9-9---------------------------------|
D|-------------------------------3~~~-3--3--3--3--3--3--3--3--3--|
A|--5-5-5-5-5-5-8--7-7-7-7-7-7-7-3~~~-3--3--3--3--3--3--3--3--3--|
D|-------------------------------3~~~-3--3--3--3--3--3--3--3--3--|
pm                                    .  .  .  .  .  .  .  .  .

e|---------------------------------------------------------------|
B|---------------------------------------------------------------|
G|-4-4-4-4--4-4-4-4-5-4-4-4-4------------------------------------|
D|-3333-3333333337777-7777999910999-|
A|-3333-3333333337777-777777777-777-|
D|-3333-3333333337777-777777777-777-|
Related for Wasting My Air tab