Song name
# A B C D E F G H I J K L M N O P Q R S T U V W X Y Z

Kinison - New Way To Dance tab

Help us improve GuitareTab! Take a short survey!
Band - The Kinison
Song - New Way To Dance

Tuning: Standard

			(Guitar1)
e|------------------------------------------------------|
B|--------2-0-----------2-0-----------2-0---------------|
G|-3-5-0-------0-3-5-0-------0-3-5-0-------0-3-5-5-5-5--|
D|------------------------------------------------------|
A|------------------------------------------------------|
E|------------------------------------------------------|

			(Guitar2)
e|------------------------------------------------------|
B|------------------------------------------------------|
G|------------------------------------------------------|
D|-7-7-7-7-7-7-7--5-5-5-5-5-5--3-3-3-3-3--2-2-2-2-2-2-2-|
A|------------------------------------------------------|
E|------------------------------------------------------|

		(Both guitars)
e|------------------------------------------|
B|------------------------------------------|
G|------------------------------------------|
D|-7-7-7-7-7--5-5-5--5-5--3-3-3--3-3--2-2-2-|
A|-7-7-7-7-7--5-5-5--5-5--3-3-3--3-3--2-2-2-|
E|-5-5-5-5-5--3-3-3--3-3--1-1-1--1-1--0-0-0-|

			(Guitar1)
e|-----------------------------------------------|
B|-----------------------------------------------|
G|-----------------------------------------------|
D|-7-7-7-7-7-7-7-5-5-5-5-5-5-3-3-3-3-3-2-2-2-2-2-|
A|-7-7-7-7-7-7-7-5-5-5-5-5-5-3-3-3-3-3-2-2-2-2-2-|
E|-5-5-5-5-5-5-5-3-3-3-3-3-3-1-1-1-1-1-0-0-0-0-0-|

			(Guitar2)
e|-----------------------------------------------|
B|-----------------------------------------------|
G|-14-14-14-14-12-12-12-12--10-10-10-9-9-9-9-----|
D|-----------------------------------------------|
A|-12-12-12-12-10-10-10-10--8--8--8--7-7-7-7-----|
E|-----------------------------------------------|
Related for New Way To Dance tab