Song name
# A B C D E F G H I J K L M N O P Q R S T U V W X Y Z

Kinison - Sorry Im A Pushover tab

Band - The Kinison
Song - Sorry I'm A Pushover

Tuning: Standard

Intro:
e|--------------------------------------------------------------------0-|
B|--------------------------------------------------------------------0-|
G|-----9-------9-------9-------9--------7------7-------7--------7-----0-|
D|----------------------------------------------------------------------|
A|-7-7---7-7-7---7-7-7---7-7-7---7--5-5--5-5-5---5-5-5---5-5--5---5-5---|
E|----------------------------------------------------------------------|

Verse:
e|----------------------------------|
B|----------------------------------|
G|-9-9-9-9-9-9-9-9--7-7-7-7-7-7-7-7-|
D|-9-9-9-9-9-9-9-9--7-7-7-7-7-7-7-7-|
A|-7-7-7-7-7-7-7-7--5-5-5-5-5-5-5-5-|
E|----------------------------------|

Chorus:
e|-------------------------------------------------|
B|-------------------------------------------------|
G|-9-9-9-9-9--12--12--12--11--11--11--5--5-5-5-5-5-|
D|-9-9-9-9-9--------------------------5--5-5-5-5-5-|
A|-7-7-7-7-7--10--10--10--9---9---9---3--3-3-3-3-3-|
E|-------------------------------------------------|
Tap to rate this tab
# A B C D E F G H I J K L M N O P Q R S T U V W X Y Z