Song name
# A B C D E F G H I J K L M N O P Q R S T U V W X Y Z

Kinit Her - Walled tab

Kinit Her 
Walled
2010

Standard Tuning

Verse:

E|----------------------|
B|----------------------|
G|----------------------|
D|-5----4----1----2----4|
A|-7----5----2----3----5|
E|-0----0----0----0----0|


E|---------------------------------|
B|---------------------------------|
G|---------------------------------| 
D|-5----4----1----2--4--5--7--9--10|
A|-7----5----2----3--5--7--9--10-12|
E|-0----0----0----0--0--0--0--0--0-|


E|--------------------------------|
B|--------------------------------|
G|--------------------------------|
D|-9----7---10---9--7--5--7--5--4-|
A|-10---9---12---10-9--7--9--7--5-|
E|-0----0---0----0--0--0--0--0--0-| 
Tap to rate this tab
# A B C D E F G H I J K L M N O P Q R S T U V W X Y Z