Guitaretab - guitar tabs
Song name
# A B C D E F G H I J K L M N O P Q R S T U V W X Y Z
Home / K / Kinks / Rats tab

Kinks - Rats tab

-----------------------------------------------------------------------------
			    Rats  The Kinks
-----------------------------------------------------------------------------

Tuning:EADGBe
[ Tab from: http://www.guitaretab.com/k/kinks/138978.html ]
INTRO/VERSE: Strum accordingly
e|------------------------------------------------------------|
B|------------------------------------------------------------|
G|---9-9-9-9-9-9-14-14-12-11-9-7-7/-9-9--14-14-12-11-9-7-7/-9-|
D|---9-9-9-9-9-9-14-14-12-11-9-7-7/-9-9--14-14-12-11-9-7-7/-9-|
A|---7-7-7-7-7-7-12-1210-9--7-5-5/-7-7--12-1210-9--7-5-5/-7-|
E|------------------------------------------------------------|
     
e|--------------------|
B|--------------------|
G|--------------------| Repeat 2x
D|---7-7-6-7-6-7-7/9--|
A|---5-5-4-5-4-5-5/7--|
E|--------------------|
Related for Rats tab