Song name
# A B C D E F G H I J K L M N O P Q R S T U V W X Y Z

Kinks - Wild Thing tab


                           The Kinks - Wild Thing\\

  Riff 1

-------5--5------------------------------|
-------6--6---7-7---9-9-9-9---9-9--------|
-------6--6---7-7---7-7-7-7---7-7--------|
--6B---7--7---7-7---7-7-7-7---7-7--------|
-------7--7---5-5---7-7-7-7---7-7--------|
-------5--5------------------------------|
Hint: Use thumb on sixth string


Riff 2

----5--5--------------------|  X4
----6--6---7-7---9-9---7-7--|
----6--6---7-7---9-9---7-7--|
----7--7---7-7---9-9---7-7--|
----7--7---5-5---7-7---5-5--|
----5--5--------------------|


 Riff 3

------------------|  X4
------------------|
---5-6-5-6*-------|
---5-7-5-7--------|
---5-7-5-7--------|
------------------| - Hold Note

Riff 4a

----------------------------|
--9-9-9-9---9--9------------|
--9-9-9-9---9--9------------|
--9-9-9-9---9--9------------|
--7-7-7-7---7--7------------|
----------------------------|

Riff 4b

-----------------------------------------------|
--9-9-9-9-9-9-9-9------------------------------|
--9-9-9-9-9-9-9-9------------------------------|
--9-9-9-9-9-9-9-9------------------------------|
--7-7-7-7-7-7-7-7------------------------------|
-----------------------------------------------|

        Arrangement

       Riff 1 X1
       Riff 2 X4
       Riff 3 X4
       Riff 2 X5
       Riff 1 X1
       Riff 2 X3
       Riff 1 X1
       Riff 3 X4
       Riff 2 X1
       Riff 4a X3
       Riff 4b X1  fade out
Tap to rate this tab
# A B C D E F G H I J K L M N O P Q R S T U V W X Y Z