Song name
# A B C D E F G H I J K L M N O P Q R S T U V W X Y Z

Kinks - Shes Got Everything tab

There's no tab for this nice song, so i'm doing it. It's my first tab.

I think you will only need this:

Intro
|----------------------------------------------------------------------|
|----------------------------------------------------------------------|
|----------------------------------------------------------------------|
|----------------------------------------------------------------------|
|------5---------------------------------------------------------------|
|-3--3-----1--1--1-3---------------------------------------------------|

Main Riff
|----------------------------------------------------------------------|
|----------------------------------------------------------------------|
|------5---------------------------------------------------------------|
|-5--5-5---3--3-5------------------------------------------------------|
|-5--5-3---3--3-5------------------------------------------------------|
|-3--3-----1--1-3------------------------------------------------------|


Have fun playing this great band !
Tap to rate this tab
# A B C D E F G H I J K L M N O P Q R S T U V W X Y Z